Log in

One click and you are in

Login with Facebook Login with Google

Why sign up and log in

Guitar Tabs Explorer
Pantera bass tabs for Cemetery gates

Bass tabs

CEMETEY GATES by PanterA
>From COWBOYS FROM HELL album


Intro (and a great part of the music)
G-----------------------|
D-----------------------|
A------------------5-4--|
E-------2---5---0-------|
This part like above, but when the distorcion guitar bigins
G--------------------------------------|
D-----------2---------2---------2------| Repeat many times
A-------2\4---0---2\4-------2\4---5-4--|
E---2-------------------0--------------|

This is the chorus and the begining of heavy.
Repeat many times, after it comes to second part.
G-------------------------------------------------------------------
D-------------------------------------------------------------------
A----------------------------------------7-6-7-8-6-7---6------------
E-5-5-5-5-5-----1-1-1-1-1-----5-5-5-5-5--------------8---7----------

The second part:
G-------------------------------------------------------------------
D-------------------------------------------------------------------
A----------------------------------------7-6-7-8-6-7----------------
E-5-5-5-5-5-----1-1-1-1-1-----5-5-5-5-5--------------8-0-1-2-2-2----

G-------------------------------------------------------------------
D-------------------------------------------------------------------
A----------2-2-2-2-3------------------------------------------------
E-5-5-5-5------------0-1-2-2-2--------------------------------------


This is the part before the solo and the part of voice with guitars
G-------------------------------------------------------------------
D-------------------------------------------------------------------
A-0-----0-----0-----0-----------------------------------------------
E---0-1---0-1---0-1-------------------------------------------------

ⓘ Bass guitar tab for 'Cemetery Gates' by Pantera, a thrash metal band formed in 1982 from Arlington, Texas, USA. They retired in 2003. Pantera was known for their confrontational metal music.

Almost there ...

Sign in to get your own page with links to favourite songs and more. You are just one click away...

Login with Facebook Login with Google