Log in

One click and you are in

Login with Facebook Login with Google

Why sign up and log in

Guitar Tabs Explorer
Pantera tabs for Cemetary gates

Guitar tabs

Tune 1/4 down.


Intro

e-----------------------------------------0----------
b-----2---------0------------0----------2----2---2---
G----2---2-----4--4---------4---4-----4--------4-----
D---2---2-----2-----2------2------2-0----------------
A--4-------0-----------------------------------------
E-2-------------------0------------------------------

e-----------------------0---------
b------0--------2---------2-------
G-----4---4-------4---------4-----
D----2------2-0-----0---------0---
A---------------------------------
E-(0)-----------------------------


Chorus
     p.m.---------}
e-----------------------------------------
b-----------------------------------------
G--2-------------------------------4~-----
D--2-----------------2/1--2-3~--1/3---2/3-
A--0----0--0--0--0------------------------
E-----------------------------------------

      p.m---------}
e-------------------------------------------
b-------------------------------------------
G--2----------------------------------0-----
D--2-----------------2-1-2-3---1-2----1-----
A--0----0--0--0--0-----------------3-----2~~
E-------------------------------------------

Double Time Rhythem

this part of the song speeds up to about 144 beats

    p.m--}    p.m---}      p.m---}  p.m--}
e-------------------------------------------------------
b-------------------------------------------------------
G-------------------------------------------------------
D-----------2-----------4----------5--------------------
A--4--------0---0-0-0---2---2-2-2--3--------2---3-------
E--2--2-2------------------------------0-0--0---1-------
     p.m-}   p.m---}     p.m---}       p.m--}
e-----------------------------------------------
b-----------------------------------------------
G-----------------------------------------------
D----------2----------4-----------5-5-x---------
A--4-------0--0-0-0---2---2-2-2---3-3-x--2-3----
E--2--2-2-----------------------------x--0-1----

Almost there ...

Sign in to get your own page with links to favourite songs and more. You are just one click away...

Login with Facebook Login with Google