Log in

One click and you are in

Login with Facebook Login with Google

Why sign up and log in

Guitar Tabs Explorer
Pantera bass tabs for By demons be driven

Bass tabs

Tuning: Standard (E A D G)



INTRO:
3 bars of silence followed by the below:

  1  +  2  +  3  +  4  +
G|-----------------------------------------|
D|-----------------------------------------|
A|-----------------------------------------|
E|-----------------1----3----1----3----1---|
  1 e + a 2 e + a 3 e + a 4 e + a  1 e + a 2 e + a 3 e + a 4 e + a
G|-------------------------------------------------|-------------------------------------------------|
D|-------------------------------------------------|-------------------------------------------------|
A|-------------------------------------------------|-------------------------------------------------| (x4)
E|-0--0--0--0--0--0--0-----------------0--0--0--0--|-0--0--0-----------------------------------------|

  1 e + a 2 e + a 3 e + a 4 e + a  1 e + a 2 e + a 3 e + a 4 e + a
G|-------------------------------------------------|-------------------------------------------------|
D|-------------------------------------------------|-------------------------------------------------|
A|-------------------------------------------------|-------------------------------------------------| (x3)
E|-0--0--0--0--0--0--0-----------------0--0--0--0--|-0--0--0-----------------------------------------|


  1 e + a 2 e + a 3 e + a 4 e + a  1 e + a 2 e + a 3 e + a 4 e + a
G|-------------------------------------------------|-------------------------------------------------|
D|-------------------------------------------------|-------------------------------------------------|
A|-------------------------------------------------|-------------------------------------------------|
E|-0--0--0--0--0--0--0-----------------0--0--0--0--|-0--0--0-----------1-----3-----1-----3-----1-----|

Followed by a half bar of silence.


VERSE 1:

  1  +  2  +  3  +  4  +   1  +  2  +  3  +  4  +
G|-----------------------------------------|-----------------------------------------|
D|-----------------------------------------|-----------------------------------------|
A|-----------------5----7---------5----7---|------------7----6----5------------------|
E|--0---------7----------------------------|---------------------------7----6----5---|


  1  +  2  +  3  +  4  +   1  +  2  +  3  +  4  +
G|-----------------------------------------|-----------------------------------------|
D|-----------------------------------------|-----------------------------------------|
A|---------------------------3----4----5---|---------------------------1----2----3---|
E|------------3----4----5------------------|------------3----2----1------------------|


  1  +  2  +  3  +  4  +   1  +  2  +  3  +  4  +
G|-----------------------------------------|-----------------------------------------|
D|-----------------------------------------|-----------------------------------------|
A|-----------------5----7---------5----7---|------------7----6----5------------------|
E|--0---------7----------------------------|---------------------------7----6----5---|


  1  +  2  +  3  +  4  +   1  +  2  +  3  +  4  +
G|-----------------------------------------|-----------------------------------------|
D|-----------------------------------------|----------------------5------------------|
A|---------------------------3----4----5---|---------------------------7----5--------|
E|------------3----4----5------------------|------------3----2-----------------------|


  1  +  2  +  3  +  4  +   1  +  2  +  3  +  4  +
G|-----------------------------------------|-----------------------------------------|
D|-----------------------------------------|-----------------------------------------|
A|-----------------5----7---------5----7---|------------7----6----5------------------|
E|--0---------7----------------------------|---------------------------7----6----5---|


  1  +  2  +  3  +  4  +   1  +  2  +  3  +  4  +
G|-----------------------------------------|-----------------------------------------|
D|-----------------------------------------|-----------------------------------------|
A|---------------------------3----4----5---|---------------------------1----2----3---|
E|------------3----4----5------------------|------------3----2----1------------------|


  1  +  2  +  3  +  4  +   1  +  2  +  3  +  4  +
G|-----------------------------------------|-----------------------------------------|
D|-----------------------------------------|-----------------------------------------|
A|-----------------5----7---------5----7---|------------7----6----5------------------|
E|--0---------7----------------------------|---------------------------7----6----5---|


  1  +  2  +  3  +  4  +   1  +  2  +  3  +  4  +
G|-----------------------------------------|-----------------------------------------|
D|-----------------------------------------|-----------------------------------------|
A|---------------------------3----4----5---|---------------------------1----2--------|
E|------------3----4----5------------------|------------3----2----1------------------|


PRE-CHORUS 1:

  1  +  2  +  3  +  4  +   1  +  2  +  3  +  4  +
G|-----------------------------------------|-----------------------------------------|
D|-----------------------------------------|-----------------------------------------|
A|-----------------------------------------|-----------------------------------------|
E|--0--------------------------------------|-----------------------------------------|


  1  +  2  +  3  +  4  +   1  +  2  +  3  +  4  +
G|------------8----7---------7----6--------|--6----5---------5----4------------------|
D|------------7----6---------6----5--------|--5----4---------4----3------------------|
A|-----------------------------------------|-----------------------------------------|
E|--0--------------------------------------|-----------------------------------------|


CHORUS 1:

  1 e + a 2 e + a 3 e + a 4 e + a  1 e + a 2 e + a 3 e + a 4 e + a
G|-------------------------------------------------|-------------------------------------------------|
D|-------------------------------------------------|-------------------------------------------------|
A|-------------------------------------------------|-------------------------------------------------| (x3)
E|-0--0--0--0--0--0--0-----------------0--0--0--0--|-0--0--0-----------------------------------------|


  1 e + a 2 e + a 3 e + a 4 e + a  1 e + a 2 e + a 3 e + a 4 e + a
G|-------------------------------------------------|-------------------------------------------------|
D|-------------------------------------------------|-------------------------------------------------|
A|-------------------------------------------------|-------------------------------------------------|
E|-0--0--0--0--0--0--0-----------------0--0--0--0--|-0--0--0-----------1-----3-----1-----3-----1-----|

POST-CHORUS 1:

  1 e + a 2 e + a 3 e + a 4 e + a  1 e + a 2 e + a 3 e + a 4 e + a
G|-------------------------------------------------|-------------------------8b----------8b----------|
D|-------------------------------------------------|-------------------------------------------------|
A|-------------------------------------------------|-------------------------------------------------|
E|-0--0--0--0--0--0--0-----------------0--0--0--0--|-0-----0-----0-----0-----------------------------|


  1 e + a 2 e + a 3 e + a 4 e + a  1 e + a 2 e + a 3 e + a 4 e + a
G|-------------------------------------------------|-------------------------------------------------|
D|-------------------------------------------------|-------------------------------------------------|
A|-------------------------------------------------|-------------------------------------------------|
E|-0--0--0--0--0--0--0-----------------0--0--0--0--|-0--0--0-----------1-----3-----1-----3-----1-----|


  1 e + a 2 e + a 3 e + a 4 e + a  1 e + a 2 e + a 3 e + a 4 e + a
G|-------------------------------------------------|-------------------------8b----------8b----------|
D|-------------------------------------------------|-------------------------------------------------|
A|-------------------------------------------------|-------------------------------------------------|
E|-0--0--0--0--0--0--0-----------------0--0--0--0--|-0-----0-----0-----0-----------------------------|


  1 e + a 2 e + a 3 e + a 4 e + a  1 e + a 2 e + a 3 e + a 4 e + a
G|-------------------------------------------------|-------------------------------------------------|
D|-------------------------------------------------|-------------------------------------------------|
A|-------------------------------------------------|-------------------------------------------------|
E|-0--0--0--0--0--0--0-----------------0--0--0--0--|-0--0--0-----0-----1-----3-----1-----3-----1-----|

Followed by a half bar of silence.


VERSE 2:

  1  +  2  +  3  +  4  +   1  +  2  +  3  +  4  +
G|-----------------------------------------|-----------------------------------------|
D|-----------------------------------------|-----------------------------------------|
A|-----------------5----7---------5----7---|------------7----6----5------------------|
E|--0---------7----------------------------|---------------------------7----6----5---|


  1  +  2  +  3  +  4  +   1  +  2  +  3  +  4  +
G|-----------------------------------------|-----------------------------------------|
D|-----------------------------------------|-----------------------------------------|
A|---------------------------3----4----5---|---------------------------1----2----3---|
E|------------3----4----5------------------|------------3----2----1------------------|


  1  +  2  +  3  +  4  +   1  +  2  +  3  +  4  +
G|-----------------------------------------|-----------------------------------------|
D|-----------------------------------------|-----------------------------------------|
A|-----------------5----7---------5----7---|------------7----6----5------------------|
E|--0---------7----------------------------|---------------------------7----6----5---|


  1  +  2  +  3  +  4  +   1  +  2  +  3  +  4  +
G|-----------------------------------------|-----------------------------------------|
D|-----------------------------------------|----------------------5------------------|
A|---------------------------3----4----5---|---------------------------7----5--------|
E|------------3----4----5------------------|------------3----2-----------------------|


  1  +  2  +  3  +  4  +   1  +  2  +  3  +  4  +
G|-----------------------------------------|-----------------------------------------|
D|-----------------------------------------|-----------------------------------------|
A|-----------------5----7---------5----7---|------------7----6----5------------------|
E|--0---------7----------------------------|---------------------------7----6----5---|


  1  +  2  +  3  +  4  +   1  +  2  +  3  +  4  +
G|-----------------------------------------|-----------------------------------------|
D|-----------------------------------------|-----------------------------------------|
A|---------------------------3----4----5---|---------------------------1----2----3---|
E|------------3----4----5------------------|------------3----2----1------------------|


  1  +  2  +  3  +  4  +   1  +  2  +  3  +  4  +
G|-----------------------------------------|-----------------------------------------|
D|-----------------------------------------|-----------------------------------------|
A|-----------------5----7---------5----7---|------------7----6----5------------------|
E|--0---------7----------------------------|---------------------------7----6----5---|


  1  +  2  +  3  +  4  +   1  +  2  +  3  +  4  +
G|-----------------------------------------|-----------------------------------------|
D|-----------------------------------------|-----------------------------------------|
A|---------------------------3----4----5---|---------------------------1----2--------|
E|------------3----4----5------------------|------------3----2----1------------------|


PRE-CHORUS 2:

  1  +  2  +  3  +  4  +   1  +  2  +  3  +  4  +
G|-----------------------------------------|-----------------------------------------|
D|-----------------------------------------|-----------------------------------------|
A|-----------------------------------------|-----------------------------------------|
E|--0--------------------------------------|-----------------------------------------|


  1  +  2  +  3  +  4  +   1  +  2  +  3  +  4  +
G|------------8----7---------7----6--------|--6----5---------5----4------------------|
D|------------7----6---------6----5--------|--5----4---------4----3------------------|
A|-----------------------------------------|-----------------------------------------|
E|--0--------------------------------------|-----------------------------------------|


CHORUS 2:

  1 e + a 2 e + a 3 e + a 4 e + a  1 e + a 2 e + a 3 e + a 4 e + a
G|-------------------------------------------------|-------------------------------------------------|
D|-------------------------------------------------|-------------------------------------------------|
A|-------------------------------------------------|-------------------------------------------------| (x3)
E|-0--0--0--0--0--0--0-----------------0--0--0--0--|-0--0--0-----------------------------------------|

Followed by:

  1 e + a 2 e + a 3 e + a 4 e + a  1 e + a 2 e + a 3 e + a 4 e + a
G|-------------------------------------------------|-------------------------------------------------|
D|-------------------------------------------------|-------------------------------------------------|
A|-------------------------------------------------|-------------------------------------------------|
E|-0--0--0--0--0--0--0-----------------0--0--0--0--|-0--0--0-----------1-----3-----1-----3-----1-----|


POST-CHORUS 2: (x2)

  1 e + a 2 e + a 3 e + a 4 e + a  1 e + a 2 e + a 3 e + a 4 e + a
G|-------------------------------------------------|-------------------------8b----------8b----------|
D|-------------------------------------------------|-------------------------------------------------|
A|-------------------------------------------------|-------------------------------------------------|
E|-0--0--0--0--0--0--0-----------------0--0--0--0--|-0-----0-----0-----0-----------------------------|


  1 e + a 2 e + a 3 e + a 4 e + a  1 e + a 2 e + a 3 e + a 4 e + a
G|-------------------------------------------------|-------------------------------------------------|
D|-------------------------------------------------|-------------------------------------------------|
A|-------------------------------------------------|-------------------------------------------------|
E|-0--0--0--0--0--0--0-----------------0--0--0--0--|-0--0--0-----------1-----3-----1-----3-----1-----|


  1 e + a 2 e + a 3 e + a 4 e + a  1 e + a 2 e + a 3 e + a 4 e + a
G|-------------------------------------------------|-------------------------8b----------8b----------|
D|-------------------------------------------------|-------------------------------------------------|
A|-------------------------------------------------|-------------------------------------------------|
E|-0--0--0--0--0--0--0-----------------0--0--0--0--|-0-----0-----0-----0-----------------------------|


  1 e + a 2 e + a 3 e + a 4 e + a  1 e + a 2 e + a 3 e + a 4 e + a
G|-------------------------------------------------|-------------------------------------------------|
D|-------------------------------------------------|-------------------------------------------------|
A|-------------------------------------------------|-------------------------------------------------|
E|-0--0--0--0--0--0--0-----------------0--0--0--0--|-0--0--0-----0-----1-----3-----1-----3-----1-----|

Followed by a bar and a half of silence.


SOLO:

  1 e + a 2 e + a 3 e + a 4 e + a   1  +  2  +  3  +  4  +
G|-------------------------------------------------|-----------------------------------------|
D|-------------------------------------------------|-----------------------------------------|
A|-------------------------1-----------------------|--5----4---------4----3----1---------0---| (x2)
E|-1--3--3--3--3--3--3--3--------3-----------3-----|-----------------------------------------|


  1 e + a 2 e + a 3 e + a 4 e + a   1  +  2  +  3  +  4  +
G|-------------------------------------------------|-----------------------------------------|
D|-------------------------2-----------------------|-----------------------------------------|
A|-------------------------------------1-----0-----|-------0---------------------------------| (x2)
E|-0--0--0--0--0--0--0--0--------------------------|------------3----1---------1----1----1---|


  1 e + a 2 e + a 3 e + a 4 e + a   1  +  2  +  3  +  4  +
G|-------------------------------------------------|-----------------------------------------|
D|-------------------------------------------------|-----------------------------------------|
A|-------------------------1-----------------------|--5----4---------4----3----1---------0---| (x2)
E|-1--3--3--3--3--3--3--3--------3-----------3-----|-----------------------------------------|


  1 e + a 2 e + a 3 e + a 4 e + a   1  +  2  +  3  +  4  +
G|-------------------------------------------------|-----------------------------------------|
D|-------------------------2-----------------------|-----------------------------------------|
A|-------------------------------------1-----0-----|-------0---------------------------------| (x2)
E|-0--0--0--0--0--0--0--0--------------------------|------------3----1---------1----1----3---|

And lastly, hold this note for 4 bars:

   1  +  2  +  3  +  4  +
G|-----------------------------------------|
D|-----------------------------------------|
A|-----------------------------------------|
E|--0--------------------------------------|


CHORUS 3:

  1 e + a 2 e + a 3 e + a 4 e + a  1 e + a 2 e + a 3 e + a 4 e + a
G|-------------------------------------------------|-------------------------------------------------|
D|-------------------------------------------------|-------------------------------------------------|
A|-------------------------------------------------|-------------------------------------------------| (x3)
E|-0--0--0--0--0--0--0-----------------0--0--0--0--|-0--0--0-----------------------------------------|


  1 e + a 2 e + a 3 e + a 4 e + a  1 e + a 2 e + a 3 e + a 4 e + a
G|-------------------------------------------------|-------------------------------------------------|
D|-------------------------------------------------|-------------------------------------------------|
A|-------------------------------------------------|-------------------------------------------------|
E|-0--0--0--0--0--0--0-----------------0--0--0--0--|-0--0--0-----------1-----3-----1-----3-----1-----|


POST-CHORUS 3:

  1 e + a 2 e + a 3 e + a 4 e + a  1 e + a 2 e + a 3 e + a 4 e + a
G|-------------------------------------------------|-------------------------8b----------8b----------|
D|-------------------------------------------------|-------------------------------------------------| \
A|-------------------------------------------------|-------------------------------------------------| |
E|-0--0--0--0--0--0--0-----------------0--0--0--0--|-0-----0-----0-----0-----------------------------| |
                                                    |
                                                    |(x3)
  1 e + a 2 e + a 3 e + a 4 e + a  1 e + a 2 e + a 3 e + a 4 e + a  |
G|-------------------------------------------------|-------------------------------------------------| |
D|-------------------------------------------------|-------------------------------------------------| |
A|-------------------------------------------------|-------------------------------------------------| /
E|-0--0--0--0--0--0--0-----------------0--0--0--0--|-0--0--0-----------1-----3-----1-----3-----1-----|


  1 e + a 2 e + a 3 e + a 4 e + a  1 e + a 2 e + a 3 e + a 4 e + a
G|-------------------------------------------------|-------------------------8b----------8b----------|
D|-------------------------------------------------|-------------------------------------------------|
A|-------------------------------------------------|-------------------------------------------------|
E|-0--0--0--0--0--0--0-----------------0--0--0--0--|-0-----0-----0-----0-----------------------------|


  1 e + a 2 e + a 3 e + a 4 e + a  1 e + a 2 e + a 3 e + a 4 e + a
G|-------------------------------------------------|-------------------------------------------------|
D|-------------------------------------------------|-------------------------------------------------|
A|-------------------------------------------------|-------------------------------------------------|
E|-0--0--0--0--0--0--0-----------------0--0--0--0--|-0--0--0-----0-----1-----3-----1-----3-----1-----|


OUTRO:
(Note: the bar is in 7/4 rather than 4/4):

  1 e + a 2 e + a 3 e + a 4 e + a 5 e + a 6 e + a 7 e + a
G|-------------------------------------------------------------------------------------|
D|-------------------------------------------------------------------------------------|
A|-------------------------------------------------------------------------------------| (x10)
E|-0--0--0--0--0--0--0-----------------0--0--0--0--0--0--0--0--0-----------------------|


***********************************

| b  Bend

***********************************

Almost there ...

Sign in to get your own page with links to favourite songs and more. You are just one click away...

Login with Facebook Login with Google