Log in

One click and you are in

Login with Facebook Login with Google

Why sign up and log in

Guitar Tabs Explorer
Panic! At The Disco bass tabs for The overpass

The Overpass bass tab by Panic! At The Disco

Panic! At The Disco bass tabs for The overpass

Bass tabs

  • Difficulty: Intermediate
Key: D#m


Intro:

G|---------------------------------------------------------------------------|
D|-----------------4-4-4-4-4-4-4-4-6-6-6-6-6-6-6-6-8-8-8-8-8-8-8-8-----------|
A|-6-6-6-6-6-6-6-6-----------------------------------------------------------|
E|---------------------------------------------------------------------------|


G|---------------------------------------------------------------------------|
D|-----------------4-4-4-4-4-4-4-4-6-6-6-6-6-6-6-6-8-8-8-8-8-8-8-8-----------|
A|-6-6-6-6-6-6-6-6-----------------------------------------------------------|
E|---------------------------------------------------------------------------|





Verse 1:

G|--------6---------------------------------------------6--------------------|
D|------------------6/---8\--6---------6------6------------------------------|
A|--6--6-----4--4--------------9-----------------4--4------------------------|
E|--------------------------------4--4---4-4---------------------------------|

G|--------6------------------------------------------------------------------|
D|------------------6/---8\--6-----------------------------------------------|
A|--6--6-----4--4--------------9---------------------------------------------|
E|--------------------------------4--4---------------------------------------|


Chorus:

G|---------------------------------------------------------------------------|
D|-----------------4-4-4-4-4-4-4-4-6-6-6-6-6-6-6-6-8-8-8-8-8-8-8-8-----------|
A|-6-6-6-6-6-6-6-6-----------------------------------------------------------|
E|---------------------------------------------------------------------------|

G|---------------------------------------------------------------------------|
D|-----------------4-4-4-4-4-4-4-4-6-6-6-6-6-6-6-6-8-8-8-8-8-8-8-8-----------|
A|-6-6-6-6-6-6-6-6-----------------------------------------------------------|
E|---------------------------------------------------------------------------|


Verse 2:

G|--------6---------------------------------------------6--------------------|
D|------------------6/---8\--6---------6------6------------------------------|
A|--6--6-----4--4--------------9-----------------4--4------------------------|
E|--------------------------------4--4---4-4---------------------------------|

G|--------6------------------------------------------------------------------|
D|------------------6/---8\--6-----------------------------------------------|
A|--6--6-----4--4--------------9---------------------------------------------|
E|--------------------------------4--4---------------------------------------|


Chorus:

G|---------------------------------------------------------------------------|
D|-----------------4-4-4-4-4-4-4-4-6-6-6-6-6-6-6-6-8-8-8-8-8-8-8-8-----------|
A|-6-6-6-6-6-6-6-6-----------------------------------------------------------|
E|---------------------------------------------------------------------------|

G|---------------------------------------------------------------------------|
D|-----------------4-4-4-4-4-4-4-4-6-6-6-6-6-6-6-6-8-8-8-8-8-8-8-8-----------|
A|-6-6-6-6-6-6-6-6-----------------------------------------------------------|
E|---------------------------------------------------------------------------|



Chorus:

G|---------------------------------------------------------------------------|
D|-----------------4-4-4-4-4-4-4-4-6-6-6-6-6-6-6-6-8-8-8-8-8-8-8-8-----------|
A|-6-6-6-6-6-6-6-6-----------------------------------------------------------|
E|---------------------------------------------------------------------------|

G|---------------------------------------------------------------------------|
D|-----------------4-4-4-4-4-4-4-4-6-6-6-6-6-6-6-6-8-8-8-8-8-8-8-8-----------|
A|-6-6-6-6-6-6-6-6-----------------------------------------------------------|
E|---------------------------------------------------------------------------|


************************************

| / Slide up
| \ Slide down

************************************
ⓘ Bass guitar tab for 'The Overpass' by Panic! At The Disco, Panic at the Disco, a male alternative rock artist from Las Vegas, Nevada, USA. Panic! At The Disco was born in 2004. Panic! At The Disco is known for his fun rock/pop music.

Almost there ...

Sign in to get your own page with links to favourite songs and more. You are just one click away...

Login with Facebook Login with Google