Log in

One click and you are in

Login with Facebook Login with Google

Why sign up and log in

Guitar Tabs Explorer
Panic! At The Disco guitar chords for Shes a handsome woman ukulele

Shes A Handsome Woman Ukulele chords by Panic! At The Disco

Panic! At The Disco guitar chords for Shes a handsome woman ukulele

Guitar chords with lyrics

TUNING: (D G C F A D)

________________________________________

Chord Diagrams:
  Bb  G#  Ebsus2  F#  Bbm  C#sus2
|--6---4----6------2---1------4----|
|--6---4----6------2---2------4----|
|--7---5----8------3---3------6----|
|--8---6----8------4---3------6----|
|--8---6----6------x---1------4----|
|--6---4----x------x---x------x----|

________________________________________


Intro:

  Q   E   E   H   Q E E H
|-----------------------------|
|-----------------------------|
|-----------------------------|   {Repeat}
|-3---3---3---2---------3-----|
|-1---4---1---1---4-3-2-1-----|
|-----------------------------|



Verse:
                                      ~
  E Q Q     E    Q Q     E Q E  W  E E Q
|-2---2--|--1------4--|--4---4--------------|
|-2---2--|--2------4--|--4---4-----4--------|
|-3---3--|--3------6--|--6---5-------3------|   {Repeat}
|-4---4--|--3------6--|--6---6---------4----|
|--------|--1------4--|--4---6--------------|
|--------|------------|------4--------------|


.............................................

 F#
Innocence.

          Bbm                   C#sus2
Sunk the glow and drowned in covers,

          C#sus2              G#
Send for all your absent lovers things.


 F#
Sheepish Wolves.

         Bbm             C#sus2
Looking lived in eating buttons,

       C#sus2                     G#
Wink, just don't put your teeth on me.



{Intro Riff}


 F#
Accidents.

         Bbm             C#sus2
Let the evening in the backdoor,

            C#sus2              G#
Filled the room ceiling to the floor.


 F#
Beat backbones.

            Bbm                 C#sus2
Grazed the poem and made it strange,

          C#sus2            G#
I wasn't born to be a skeleton.


.........................................

 Bb
Go on,

 G#                   Ebsus2
Grab your hat and fetch a camera.           {Repeat 2x}

 Bb        G#                  Ebsus2
Go on, film the world before it happens.


.........................................


 F#
Jealous orchard.

            Bbm                C#sus2
The sky is falling off the ceiling

           C#sus2              G#
While I'm tucking fibs into a cookie jar.


 F#
Reverie.

               Bbm                C#sus2
It's useless searching in the cupboards

            C#sus2              G#
When everything you have is on your back.

Almost there ...

Sign in to get your own page with links to favourite songs and more. You are just one click away...

Login with Facebook Login with Google