Log in

One click and you are in

Login with Facebook Login with Google

Why sign up and log in

Guitar Tabs Explorer
Panic! At The Disco bass tabs for One of the drunks

One Of The Drunks bass tab by Panic! At The Disco

Panic! At The Disco bass tabs for One of the drunks

Bass tabs

Tuning: Standard (E A D G)


Intro: Come in at 0:06:

G|---------------------------------------------------------------------------|
D|---------------------------------------------------------------------------|
A|-7-7--7-11-11--11-9-9--9---------6-----------------------------------------|
E|-------------------------9-9-7-9-------------------------------------------|

Verse 1: Play x4:

G|---------------------------------------------------------------------------|
D|---------------------------------------------------------------------------|
A|-7-7--7-11-11--11-9-9--9---------6-----------------------------------------|
E|-------------------------9-9-7-9-------------------------------------------|


Verse 1: 5th Time Before Chorus:

G|---------------------------------------------------------------------------|
D|---------------------------------------------------------------------------|
A|-7-7--7-11-11--11-9--------------------------------------------------------|
E|---------------------------------------------------------------------------|


Chorus: Play The 16 Only On The First Time You Play The Chorus:
Play x3:

G|---------------------------------------------------------------------------|
D|---------------------------------------------------------------------------|
A|---------------------------------------------------------------------------|
E|-16\-00-x00-x44-x44-x22-x22-/x99-x77---------------------------------------|

"Welcome To The Club":

G|---------------------------------------------------------------------------|
D|------------------------------9-11-9---------------------------------------|
A|----------6-7\--/7-6-4\--9-11--------11\---------------2-------------------|
E|-/999-7-9--------------------------------4--4-4-2--2-4---4-2---------------|


Verse 2:

G|---------------------------------------------------------------------------|
D|---------------------------------------------------------------------------|
A|------7-6-4-----4-/11---11-11-9-------9---9--------------------------------|
E|-0------------4--------------------99---9----------------------------------|

"Holy Spirit Holy Spirit":

G|---------------------------------------------------|
D|-----------------------11-9------------------------|
A|---/7---11-9------9-11------11-9-11------11-11-9\--|
E|-0-----------9----------------------4--------------|


Chorus 2:

G|---------------------------------------------------------------------------|
D|---------------------------------------------------------------------------|
A|------------------------------------------------------------------6--------|
E|-00-x00-x44-x44-x22-x22-/x99-x77--00-x00-x44-x44-x22-x22-/999-7-9----------|

G|---------------------------------------------------------------------------|
D|---------------------------------------------------------------------------|
A|------------------------------------------------------------------6--------|
E|-00-x00-x44-x44-x22-x22-/x99-x77--00-x00-x44-x44-x22-x22-/999-7-9----------|


Bridge:

G|---------------------------------------------------------------------------|
D|---------------------------------------------------------------------------|
A|-7----4----11----9-------2-4-----------------------------------------------|
E|-------------------9-2-4---------------------------------------------------|

G|---------------------------------------------------------------------------|
D|-----6---------------------------------------------------------------------|
A|-7-----4----11----13-------------------------------------------------------|
E|---------------------------------------------------------------------------|


Chorus 2:
Repeat x2:

G|---------------------------------------------------------------------------|
D|---------------------------------------------------------------------------|
A|-----------------------------------------------------------------6---------|
E|-00-x00-x44-x44-x22-x22-/x99-x77--00-00-x44-x44-x22-x22-/999-7-9-----------|


End:

G|---------------------------------------------------------------------------|
D|----------------------------------11---------------------------------------|
A|-7---7---7---11----11----11---9-9---9-9-11------------6--------------------|
E|---7---7--------11----11----------------------999-7-9----------------------|

G|---------------------------------------------------------------------------|
D|-------------------------9--------------9----9-10-11-11-11-11-9------------|
A|-7---7---7---11-11-11-11---11-10-9-9-11---11--------------------11\--------|
E|---7---7-------------------------------------------------------------------|

G|---------------------------------------------------------------------------|
D|---------------------------------------------------------------------------|
A|----------------------------------------------2---------4---4-------------6|
E|-00-x00-x44-x44-x22-x22-/x99-x77-00-x00-4-4-4---4-3-2-2---2---2---999-7-9--|


************************************


************************************

| x   Dead note
| (n) Ghost note
| /   Slide up
| \   Slide down
| ~   Vibrato

************************************

Almost there ...

Sign in to get your own page with links to favourite songs and more. You are just one click away...

Login with Facebook Login with Google