Log in

One click and you are in

Login with Facebook Login with Google

Why sign up and log in

Guitar Tabs Explorer
Panic! At The Disco bass tabs for High hopes (Ver. 2)

High Hopes bass tab by Panic! At The Disco (Ver. 2)

Panic! At The Disco bass tabs for High hopes (Ver. 2)

Bass tabs

Tuning: Standard (E A D G)


Verse 1:

G|-------------------------|-------------------------|-------------------------|-------------------------|
D|-8-----8--8--8-----8-----|-------------------------|-------------------------|-------------------------|
A|-------------------------|-8-----8--8--8-----8-----|-5-----5--5--5-----5-----|-3-----3--3--3-----3/----|
E|-------------------------|-------------------------|-------------------------|-------------------------|
G|-------------------------|-------------------------|-------------------------|-------------------------|
D|-8-----8--8--8-----8-----|-------------------------|-------------------------|-------------------------|
A|-------------------------|-8-----8--8--8-----8-----|-5-----5--5--5-----5-----|-------------------------|
E|-------------------------|-------------------------|-------------------------|-5--5--5-----5--5--5/----|


G|-------------------------|-------------------------|-------------------------|-------------------------|
D|-8-----8--8--8-----8-----|-------------------------|-------------------------|-------------------------|
A|-------------------------|-8-----8--8--8-----8-----|-5-----5--5--5-----5-----|-3-----3--3--3-----3/----|
E|-------------------------|-------------------------|-------------------------|-------------------------|


G|-------------------------|-------------------------|-------------------------|-------------------------|
D|-8-----8--8--8-----8-----|-------------------------|-------------------------|-------------------------|
A|-------------------------|-8--8--8--8--8--8--8\----|-5-----5--5--5-----5\----|-------------------------|
E|-------------------------|-------------------------|-------------------------|-------------------5/----|


Pre-Chorus:

G|-------------------------|-------------------------|-------------------------|-------------------------|
D|-------------------------|-------------------------|-------------------------|-------------------------|
A|1/8----------------------|-------------------------|5~-----------------------|1~-----------------------|
E|-------------------------|5~-----------------------|-------------------------|-------------------------|

G|-------------------------|-------------------------|-------------------------|-------------------------|
D|-------------------------|-------------------------|-------------------------|-------------------------|
A|8~-----------------------|-------------------------|5~-----------------------|1~-----------------------|
E|-------------------------|5~-----------------------|-------------------------|-------------------------|


Chorus:

G|-------------------------|-------------------------|-------------------------|-------------------------|
D|-8-----8--8--8-----8-----|-------------------------|-------------------------|-------------------------|
A|-------------------------|-8-----8--8--8-----8-----|-5-----5--5--5-----5-----|-3-----3--3--3-----3/----|
E|-------------------------|-------------------------|-------------------------|-------------------------|


G|-------------------------|-------------------------|-------------------------|-------------------------|
D|-8-----8--8--8-----8-----|-------------------------|-------------------------|-------------------------|
A|-------------------------|-8-----8--8--8-----8-----|-5-----5--5--5-----5-----|-------------------------|
E|-------------------------|-------------------------|-------------------------|-5--5--5-----5--5--5/----|


G|-------------------------|-------------------------|-------------------------|-------------------------|
D|-8-----8--8--8-----8-----|-------------------------|-------------------------|-------------------------|
A|-------------------------|-8-----8--8--8-----8-----|-5-----5--5--5-----5-----|-3-----3--3--3-----3/----|
E|-------------------------|-------------------------|-------------------------|-------------------------|


G|-------------------------|-------------------------|-------------------------|-------------------------|
D|-8-----8--8--8-----8-----|-------------------------|-------------------------|-------------------------|
A|-------------------------|-8--8--8--8--8--8--8\----|-5-----5--5--5-----5\----|-------------------------|
E|-------------------------|-------------------------|-------------------------|-------------------5/----|


Verse 2:

G|-------------------------|-------------------------|-------------------------|-------------------------|
D|-8-----8--8--8-----8-----|-------------------------|-------------------------|-------------------------|
A|-------------------------|-8-----8--8--8-----8-----|-5-----5--5--5-----5-----|-3-----3--3--3-----3/----|
E|-------------------------|-------------------------|-------------------------|-------------------------|


G|-------------------------|-------------------------|-------------------------|-------------------------|
D|-8-----8--8--8-----8-----|-------------------------|-------------------------|-------------------------|
A|-------------------------|-8-----8--8--8-----8-----|-5-----5--5--5-----5-----|-------------------------|
E|-------------------------|-------------------------|-------------------------|-5--5--5-----5--5--5/----|


G|-------------------------|-------------------------|-------------------------|-------------------------|
D|-8-----8--8--8-----8-----|-------------------------|-------------------------|-------------------------|
A|-------------------------|-8-----8--8--8-----8-----|-5-----5--5--5-----5-----|-3-----3--3--3-----3/----|
E|-------------------------|-------------------------|-------------------------|-------------------------|


G|-------------------------|-------------------------|-------------------------|-------------------------|
D|-8-----8--8--8-----8-----|-------------------------|-------------------------|-------------------------|
A|-------------------------|-8--8--8--8--8--8--8\----|-5-----5--5--5-----5\----|-------------------------|
E|-------------------------|-------------------------|-------------------------|-------------------5/----|


Pre-Chorus:

G|-------------------------|-------------------------|-------------------------|-------------------------|
D|-------------------------|-------------------------|-------------------------|-------------------------|
A|1/8----------------------|-------------------------|5~-----------------------|1~-----------------------|
E|-------------------------|5~-----------------------|-------------------------|-------------------------|


G|-------------------------|-------------------------|-------------------------|-------------------------|
D|-------------------------|-------------------------|-------------------------|-------------------------|
A|8~-----------------------|-------------------------|5~-----------------------|1~-----------------------|
E|-------------------------|5~-----------------------|-------------------------|-------------------------|

G|-------------------------|-------------------------|-------------------------|-------------------------|
D|-------------------------|-------------------------|-------------------------|-------------------------|
A|1/8----------------------|-------------------------|5~-----------------------|1~-----------------------|
E|-------------------------|5~-----------------------|-------------------------|-------------------------|


G|-------------------------|-------------------------|-------------------------|-------------------------|
D|-------------------------|-------------------------|-------------------------|-------------------------|
A|8~-----------------------|-------------------------|5~-----------------------|1~-----------------------|
E|-------------------------|5~-----------------------|-------------------------|-------------------------|


Interlude:

G|-------------------------|-------------------------|-------------------------|-------------------------|
D|-------------------------|-------------------------|-------------------------|-------------------------|
A|-------------------------|-------------------------|-------------------------|-------------------------|
E|-------------------------|-------------------------|-------------------------|-------------------------|
B|-------------------------|-------------------------|-------------------------|-------------------------|
   1  +  2  +  3  +  4  +    1  +  2  +  3  +  4  +    1  +  2  +  3  +  4  +    1  +  2  +  3  +  4  +


Chorus:

G|-------------------------|-------------------------|-------------------------|-------------------------|
D|-8-----8--8--8-----8-----|-------------------------|-------------------------|-------------------------|
A|-------------------------|-8-----8--8--8-----8-----|-5-----5--5--5-----5-----|-3-----3--3--3-----3/----|
E|-------------------------|-------------------------|-------------------------|-------------------------|


G|-------------------------|-------------------------|-------------------------|-------------------------|
D|-8-----8--8--8-----8-----|-------------------------|-------------------------|-------------------------|
A|-------------------------|-8-----8--8--8-----8-----|-5-----5--5--5-----5-----|-------------------------|
E|-------------------------|-------------------------|-------------------------|-5--5--5-----5--5--5/----|


G|-------------------------|-------------------------|-------------------------|-------------------------|
D|-8-----8--8--8-----8-----|-------------------------|-------------------------|-------------------------|
A|-------------------------|-8-----8--8--8-----8-----|-5-----5--5--5-----5-----|-3-----3--3--3-----3/----|
E|-------------------------|-------------------------|-------------------------|-------------------------|


G|-------------------------|-------------------------|-------------------------|-------------------------|
D|-8-----8--8--8-----8-----|-------------------------|-------------------------|-7-----7--7--7-----7\----|
A|-------------------------|-8--8--8--8--8--8--8\----|-5-----5--5--5-----5/----|-------------------------|
E|-------------------------|-------------------------|-------------------------|-------------------------|

Legends

~ - Let Ring
/ - Slide up
\ - Slide down

Other versions of High Hopes

High hopesBass tabs

Almost there ...

Sign in to get your own page with links to favourite songs and more. You are just one click away...

Login with Facebook Login with Google