Log in

One click and you are in

Login with Facebook Login with Google

Why sign up and log in

Guitar Tabs Explorer
Panic! At The Disco bass tabs for Death of a bachelor

Death Of A Bachelor bass tab by Panic! At The Disco

Panic! At The Disco bass tabs for Death of a bachelor

Bass tabs

-------------------------------------------------------------------------------
               DEATH OF A BACHELOR - Panic! At The Disco
-------------------------------------------------------------------------------


Tuning: Drop D

VERSE 1
0:07
G|--------|--------|--------|------------|--------|--------|--------|------------|
D|--------|--------|--------|------------|--------|--------|--------|------------|
A|--------|--------|3--3--3-|0-0-0-4-4-4-|--------|--------|3--3--3-|-3-3-3-5-5-5|  X2
D|0--0--5-|-55--5--|--------|------------|0--0--5-|-55--5--|--------|------------|

0:34
G|--------|--------|--------|--------|--------|--------|--------|--------|
D|--------|--------|--------|--------|--------|--------|--------|--------|
A|--------|--------|--------|--------|--------|--------|--------|--------|
D|3--3--3-|-33--3--|2--2--7-|-77--7--|70--0--0|-11--1--|5--5--5-|-55-----|


CHORUS 1
0:48
G|--------|--------|--------|------------|--------|--------|--------|------------|
D|--------|--------|--------|------------|--------|--------|--------|------------|
A|0--0----|--------|--------|-33--3-2-0-2|0--0----|--------|--------|-3-3-3-2-0-2|  X2
D|------0-|-00--0--|03--3--3|------------|------0-|-00--0--|03--3--3|------------|



VERSE 2            "...and I just want to be served..."
1:15                              \/
G|--------|--------|--------|------------|--------|--------|--------|------------|
D|--------|--------|--------|------------|--------|--------|--------|------------|
A|--------|--------|--------|------------|--------|--------|--------|-3-3-3------|
D|--------|--------|--------|------------|--------|--------|--------|------------|

G|--------|--------|--------|------------|--------|--------|--------|------------|
D|--------|--------|--------|------------|--------|--------|--------|------------|
A|--------|--------|3--3--3-|0-0-0-4-4-4-|--------|--------|3--3--3-|-3-3-3-5-5-5|
D|0--0--5-|-55--5--|--------|------------|0--0--5-|-55--5--|--------|------------|

1:43
G|--------|--------|--------|--------|--------|--------|--------|--------|
D|--------|--------|--------|--------|--------|--------|--------|--------|
A|--------|--------|--------|--------|--------|--------|--------|--------|
D|3--3--3-|-33--3--|2--2--7-|-77--7--|70--0--0|-11--1--|5--5--5-|-55-----|


CHORUS 2
1:56
G|--------|--------|--------|------------|--------|--------|--------|------------|
D|--------|--------|--------|------------|--------|--------|--------|------------|
A|0--0----|--------|--------|-33--3-2-0-2|0--0----|--------|--------|-3-3-3-2-0-2|  X2
D|------0-|-00--0--|03--3--3|------------|------0-|-00--0--|03--3--3|------------|



BRIDGE
2:24

[REST]

2:38
G|--------|--------|--------|--------|--------|--------|--------|--------|
D|--------|--------|--------|--------|--------|--------|--------|--------|
A|0--0--0-|--------|--------|--------|--------|--------|3--3--3-|3-2-0-2-|
D|--------|--------|0--0--0-|--------|3--3--3-|--------|--------|--------|


LAST CHORUS
2:52
G|--------|--------|--------|------------|--------|--------|--------|------------|
D|--------|--------|--------|------------|--------|--------|--------|------------|
A|0--0----|--------|--------|-33--3-2-0-2|0--0----|--------|--------|-3-3-3-2-0-2|  X2
D|------0-|-00--0--|03--3--3|------------|------0-|-00--0--|03--3--3|------------|


| / slide up
| \ slide down
| h hammer-on
| p pull-off
| ~ vibrato
| + harmonic
| x Mute note

Almost there ...

Sign in to get your own page with links to favourite songs and more. You are just one click away...

Login with Facebook Login with Google