Search tabs and chords

Search for song, artist or band

Log in

One click and you are in

Login with Facebook Login with Google

Why sign up and log in

Guitar Tabs Explorer
Panda Bear guitar tabs for Token acoustic

Guitar tabs

Intro:

A chord diagramC majorC |-------7-------7-------7-------7-------7-------7-------7-------------------|
A#|-----5-------5-------5-------5-------5-------5-------5---------------------|
A chord diagramG MajorG |---7-------7-------7-------7-------7-------7-------7-----------------------|  x 2
C#|---------------------------------------------------------------------------|
A#|---------0---------------0---------------0---------------0--0--------------|
D#|-0---------------0---------------0---------------0-------------------------|
Verse:

A chord diagramC majorC |-------7-------7-------7-------7-------5-------5-------5-------5-----------|
A#|-----5-------5-------5-------5-------3-------3-------3-------3-------------|
A chord diagramG MajorG |---7-------7-------7-------7-------3-------3-------3-------3---------------|
C#|---------------------------------------------------------------------------|
A#|---------0---------------0---------------0---------------0-----------------|
D#|-0---------------0---------------0---------------0-------------------------|

                 "I'm cracking I    wanna crack..."

A chord diagramC majorC |-------5-------5-------5-------5-------5-------5-------5-------------------|
A#|-----3-------3-------3-------3-------3-------3-------3---------------------|
A chord diagramG MajorG |---3-------3-------3-------3-------3-------3-------3-----------------------|
C#|---------------------------------------------------------------------------|
A#|---------0---------------0---------------0---------------0--0--------------|
D#|-0---------------0---------------0---------------0-------------------------|

                 "Give my tidings..."

A chord diagramC majorC |-------7-------7-------7-------7-------5-------5--------10-------10--------|
A#|-----5-------5-------5-------5-------3-------3--------8--------8-----------|
A chord diagramG MajorG |---7-------7-------7-------7-------3-------3-------10-------10-------------|
C#|---------------------------------------------------------------------------|
A#|---------0---------------0---------------0---------------0-----------------|
D#|-0---------------0---------------0---------------0-------------------------|

                  "I'll go when I   wanna go        have to go..."

A chord diagramC majorC |-------5-------5-------7-------7-------7-------7-------7-------------------|
A#|-----5-------5-------5-------5-------5-------5-------5---------------------|
A chord diagramG MajorG |---5-------5-------7-------7-------7-------7-------7-----------------------|
C#|---------------------------------------------------------------------------|
A#|---------5---------------0---------------0---------------0--0--------------|
D#|-5---------------0---------------0---------------0-------------------------|

   "Blow that       steeeeam."

A chord diagramC majorC |-------7-------7-------7-------7-------7-------7-------7-------------------|
A#|-----5-------5-------5-------5-------5-------5-------5---------------------|
A chord diagramG MajorG |---7-------7-------7-------7-------7-------7-------7-----------------------|
C#|---------------------------------------------------------------------------|
A#|---------0---------------0---------------0---------------0--0--------------|
D#|-0---------------0---------------0---------------0-------------------------|

A chord diagramC majorC |-------7-------7-------7-------7-------5-------5-------5-------5-----------|
A#|-----5-------5-------5-------5-------3-------3-------3-------3-------------|
A chord diagramG MajorG |---7-------7-------7-------7-------3-------3-------3-------3---------------|
C#|---------------------------------------------------------------------------|
A#|---------0---------------0---------------0---------------0-----------------|
D#|-0---------------0---------------0---------------0-------------------------|

                  "The facts of a   piece of plastic..."

A chord diagramC majorC |-------5-------5-------5-------5-------5-------5-------5-------------------|
A#|-----3-------3-------3-------3-------3-------3-------3---------------------|
A chord diagramG MajorG |---3-------3-------3-------3-------3-------3-------3-----------------------|
C#|---------------------------------------------------------------------------|
A#|---------0---------------0---------------0---------------0--0--------------|
D#|-0---------------0---------------0---------------0-------------------------|

            "Tough won't crumble..."

A chord diagramC majorC |-------7-------7-------7-------7-------5-------5--------10-------10--------|
A#|-----5-------5-------5-------5-------3-------3--------8--------8-----------|
A chord diagramG MajorG |---7-------7-------7-------7-------3-------3-------10-------10-------------|
C#|---------------------------------------------------------------------------|
A#|---------0---------------0---------------0---------------0-----------------|
D#|-0---------------0---------------0---------------0-------------------------|

                  "A slap on a      jelly ass      don't you go and..."


Chorus:

A chord diagramC majorC |-------0-------0-------0-------0-------5-------5---------------------------|
A#|-----0-------0-------0-------0-------5-------5---------0-------0-----------|
A chord diagramG MajorG |---0-------0-------0-------0-------5-------5---------7-------7-------------|  x 4
C#|---------------------------------------------------7-------7---------------|
A#|---------0---------------4---------------5---------------7-----------------|
D#|-0---------------4---------------5---------------7-------------------------|

    "Get    in      to     the      buildingggggg..."

A chord diagramC majorC |-------7-------7-------7-------7-------7-------7-------7-------------------|
A#|-----5-------5-------5-------5-------5-------5-------5---------------------|
A chord diagramG MajorG |---7-------7-------7-------7-------7-------7-------7-----------------------|
C#|---------------------------------------------------------------------------|
A#|---------0---------------0---------------0---------------0--0--------------|
D#|-0---------------0---------------0---------------0-------------------------|

   "... cooolllddd."


CRAZY INSTRUMENTAL:

Verse:

Outro: (Strummed)

A chord diagramC majorC |---------------------------------------------------------------------------|
A#|--------------4--4--4--4----------------4--4--4--4-------------------------|
A chord diagramG MajorG |-0--0--0--0---3--3--3--3---5--5--5--5---3--3--3--3-------------------------|  x 4
C#|-2--2--2--2---4--4--4--4---7--7--7--7---4--4--4--4-------------------------|
A#|-0--0--0--0---0--0--0--0---5--5--5--5---0--0--0--0-------------------------|
D#|-0--0--0--0----------------5--5--5--5--------------------------------------|

  "Want to...   tell you...  that I...    want too..."

A chord diagramC majorC |-------7-------7-------7-------7-------7-------7-------7-------------------|
A#|-----5-------5-------5-------5-------5-------5-------5---------------------|
A chord diagramG MajorG |---7-------7-------7-------7-------7-------7-------7-----------------------|  x 2
C#|---------------------------------------------------------------------------|
A#|---------0---------------0---------------0---------------0--0--------------|
D#|-0---------------0---------------0---------------0-------------------------|

A chord diagramC majorC |-----------19--------------------------------------------------------------|
A#|-------17------------------------------------------------------------------|
A chord diagramG MajorG |---19----------------------------------------------------------------------|
C#|---------------------------------------------------------------------------|
A#|---------------------------------------------------------------------------|
D#|-0-------------------------------------------------------------------------|

Other versions of Token Acoustic

TokenTabs

Almost there ...

Sign in to get your own page with links to favourite songs and more. You are just one click away...

Login with Facebook Login with Google