Log in

One click and you are in

Login with Facebook Login with Google

Why sign up and log in

Guitar Tabs Explorer
Panda tabs for Agradable locura temporal

Guitar tabs

Afinacion:  A chord diagramEb MajorEb A chord diagramAbAb A chord diagramDbDb A chord diagramGbGb A chord diagramBb majorBb eb

eb------------------------------------------------------|
Bb------------------------------------------------------|
Gb----16-14-11-12-11----9-11---16-14-11-12-11-----------| X2
Db-12----------------12------12---------------14-12-11--|
Ab------------------------------------------------------|
Eb------------------------------------------------------|

eb--------------------------------------------|
Bb--------------------------------------------|
Gb-------------------------------   <---------|En esta no estoy muy seguro
Db---12-14----12-14-16-14-12-----X2-----------|          I'm not sure
Ab-12------12---------------------------------|
Eb--------------------------------------------|

eb-----------------------------------------|
Bb-----------------------------------------|
Gb----16-14-11-12-11----9-11---16-14-11----|
Db-12----------------12------12---------12-|
Ab-----------------------------------------|
Eb-----------------------------------------|

Almost there ...

Sign in to get your own page with links to favourite songs and more. You are just one click away...

Login with Facebook Login with Google