Log in

One click and you are in

Login with Facebook Login with Google

Why sign up and log in

Guitar Tabs Explorer
Palm bass tabs for Walkie talkie

Bass tabs

Tuning: Standard (E A D G)


Intro:
G|--------------------|----------------------|
D|--------------------|----------------------|
A|--------------------|-------------9-12-9---|
E|---------12---------|---12----8------------|
G|-------------------------------------------|
D|-------------------------------------------|
A|----------------------------------9-12-9---| x2
E|------3-3---5-5---7-7-0---10-8-------------|


Verse:
G|----------------------------------------------------|
D|----------------------------------------------------|
A|----------------------------------------------------|
E|---5-5-5--5--5---5-5-5--5--5---5--7--5--5--5-5--5---|

G|-------------------------|
D|-------------------------|
A|---7---7-7---7-7---7-7---|
E|-------------------------|

G|------------------------------------------------------------|
D|------------------------------------------------------------|
A|-----------------------------------------------------5------|
E|---0h5--5---5-5-5-0h5--5---5-5-5-0h5--7--5--7--5--7-----7---|

G|--------------------------------------------------|
D|--------------------------------------------------|
A|---7---7-7---7-7---7-7---7-7---7-7---7-7---7-7----|
E|--------------------------------------------------|


Chorus:
G|--------------------------------------------------|
D|--------------------------------------------------|
A|--------------------------------------------------|
E|---4---4-4---4-4---4-4---4-4---4-4---4-4---4-4----|


Verse:
G|---------------------------------------------------------------------|
D|---------------------------------------------------------------------|
A|---------------------------------------------------------------------|
E|---5--5--5-5---5-5---5--5--5--5---5-5---5--5--5--5---5-5---5--5--5---|

G|----------------------------------------------------------------------------|
D|----------------------------------------------------------------------------|
A|------------------------------------------------------------5---------------|
E|---0h5--5-5--5--5--5--5---5-5---5--5--5--5---5-5---5--5--5--------5--5--5---|

G|-------------------------|
D|-------------------------|
A|---7---7-7---7-7---7-7---|
E|-------------------------|

G|----------------------------------------------------------------------------|
D|----------------------------------------------------------------------------|
A|------------------------------------------------------------5---------------|
E|---0-5--5---5--5--5-0h5--5-5---5--5--5--0h5--5-5---5--5--5--------5--5--5---|

G|--------------------------------------------------|
D|--------------------------------------------------|
A|---7---7-7---7-7---7-7-----7---7-7---7-7---7-7----|
E|--------------------------------------------------|


Chorus:
G|--------------------------------------------------|
D|--------------------------------------------------|
A|--------------------------------------------------|
E|---4---4-4---4-4---4-4---4-4---4-4---4-4---4-4----|


Bridge:
G|------------------------------------------------------------------|
D|---7-------------------------------7------------------------------|
A|-----7--------------------------------7---------------------------|
E|-----------7-7-----3-5-----7-7--------------7-7-8-8-8-----7-7-7---|

G|-----------------------------------------------|
D|---7-------------------------------------------|
A|-----7-7-------------------------5-5-5---------|
E|-------------3-3-5-----8-8-7-------------------|

G|------------------------------------------------------------------|
D|---7-7------------------------------------------------------------|
A|-------7-------------------------5-5-5----------------------------|
E|-------------3-5-5-----8-7-7--------------------------------------|

G|-----------------------------------------------|
D|---------------------------------7-7-----------|
A|-----------------------5-5-5---------7---------|
E|---3-3-5-----8-8-7-----------------------------|

G|-----------------------------------------------|
D|-----------------------------------------------|
A|-----------------------5-5-5-------------------|
E|---3-5-5-----8-7-7-----------------------------|


************************************

| h Hammer-on

************************************

Almost there ...

Sign in to get your own page with links to favourite songs and more. You are just one click away...

Login with Facebook Login with Google