Log in

One click and you are in

Login with Facebook Login with Google

Why sign up and log in

Guitar Tabs Explorer
Palaye Royale bass tabs for Where is the boom

Bass tabs

Tuning: Standard (E A D G)



🤘 Intro:
G|-----------------|-----------------------|
D|-----------------|-----------------------|
A|-2--5--7----3--5-|-2--5--7----3--5-5-5-5-|
E|-----------------|-----------------------|
🤘 Verse1:
G|---------|---------|-----------------|
D|---------|---------|-----------------|
A|---------|-5-5-5-5-|-7-7-7-7-7-7-7-7-|
E|-3-3-3-3-|---------|-----------------|

G|-----------------|-----------------|
D|-----------------|-----------------|
A|-3-3-3-3-3-3-3-3-|-5-5-5-5-5-5-5-5-|
E|-----------------|-----------------|

G|---------|---------|-----------------|
D|---------|---------|-----------------|
A|---------|-5-5-5-5-|-7-7-7-7-7-7-7-7-|
E|-3-3-3-3-|---------|-----------------|

G|-----------------|-----------------|
D|-----------------|-----------------|
A|-3-3-3-3-3-3-3-3-|-5-5-5-5-5-5-5-5-|
E|-----------------|-----------------|

G|-----------------|-----------------|-----------------|---||
D|-----------------|-----------------|-----------------|---||
A|---------5-5-5-5-|-7-7-7-7-7-7-7-7-|-3-3-3-3-3-3-3-3-|-5-||
E|-3-3-3-3---------|-----------------|-----------------|---||

🤘 Chorus: 0:48
G|---------|---------|-----------------|
D|---------|---------|-----------------|
A|---------|-5-5-5-5-|-7-7-7-7-7-7-7-7-|
E|-3-3-3-3-|---------|-----------------|

G|-----------------|-----------------|
D|-----------------|-----------------|
A|-3-3-3-3-3-3-3-3-|-5-5-5-5-5-5-5-5-|
E|-----------------|-----------------|

G|---------|---------|-----------------|
D|---------|---------|-----------------|
A|---------|-5-5-5-5-|-7-7-7-7-7-7-7-7-|
E|-3-3-3-3-|---------|-----------------|

G|-----------------|-----------------|
D|-----------------|-----------------|
A|-3-3-3-3-3-3-3-3-|-5-5-5-5-5-5-5-5-|
E|-----------------|-----------------|

G|---------|---------|-----------------|
D|---------|---------|-----------------|
A|---------|-5-5-5-5-|-7-7-7-7-7-7-7-7-|
E|-3-3-3-3-|---------|-----------------|

G|-----------------|-----------------|
D|-----------------|-----------------|
A|-3-3-3-3-3-3-3-3-|-5-5-5-5-5-5-5-5-|
E|-----------------|-----------------|

{Interlude] 1:17
G|-----------------|-----------------|
D|-----------------|-----------------|
A|-3-3-3-3-3-3-3-3-|-5-5-5-5-5-5-5-5-|
E|-----------------|-----------------|

G|-----------------|
D|------5----------|
A|---3----5--3---5-|
E|-3---------------|

Mid eight: 1:30
G|------------|------------|-------------------|
D|------------|------------|-------------------|
A|------------|------------|-7-7-7--7-7--7--7-7|
E|-3-3-3--0-5-|-7-7-7--5-7-|-------------------|

G|-----------------|-----------------|
D|-----------------|-----------------|
A|-3-3-3-3-3-3-3-3-|-5-5-5-5-5-5-5-5-|
E|-----------------|-----------------|

G|-----------------|-----------------|-----------------|-----------------|
D|-----------------|-----------------|-----------------|-----------------|
A|-----------------|-----------------|-----------------|-3-3-3-3-3-3-3-3-| x3
E|-3-3-3-3-3-3-3-3-|-7-7-7-7-7-7-7-7-|-0-0-0-0-0-0-0-0-|-----------------|

🤘 Chorus: 2:23
G|---------|---------|-----------------|
D|---------|---------|-----------------|
A|---------|-5-5-5-5-|-7-7-7-7-7-7-7-7-|
E|-3-3-3-3-|---------|-----------------|

G|-----------------|-----------------|
D|-----------------|-----------------|
A|-3-3-3-3-3-3-3-3-|-5-5-5-5-5-5-5-5-|
E|-----------------|-----------------|

G|---------|---------|-----------------|
D|---------|---------|-----------------|
A|---------|-5-5-5-5-|-7-7-7-7-7-7-7-7-|
E|-3-3-3-3-|---------|-----------------|

G|-----------------|-----------------|
D|-----------------|-----------------|
A|-3-3-3-3-3-3-3-3-|-5-5-5-5-5-5-5-5-|
E|-----------------|-----------------|

G|---------|---------|-----------------|
D|---------|---------|-----------------|
A|---------|-5-5-5-5-|-7-7-7-7-7-7-7-7-|
E|-3-3-3-3-|---------|-----------------|

G|-----------------|-----------------|
D|-----------------|-----------------|
A|-3-3-3-3-3-3-3-3-|-5-5-5-5-5-5-5-5-|
E|-----------------|-----------------|

G|---------|---------|-----------------|
D|---------|---------|-----------------|
A|---------|-5-5-5-5-|-7-7-7-7-7-7-7-7-|
E|-3-3-3-3-|---------|-----------------|

G|-----------------|-----------------|
D|-----------------|-----------------|
A|-3-3-3-3-3-3-3-3-|-5-5-5-5-5-5-5-5-|
E|-----------------|-----------------|

🤘 Outro:
G|-----------------|-----------------|
D|-----------------|-----------------|
A|-3-3-3-3-3-3-3-3-|-5-5-5-5-5-5-5-5-|
E|-----------------|-----------------|

G|-----------------||
D|------5----------||
A|---3----5--3---5-||
E|-3---------------||

 3:13
G|------------|------------|-------------------|
D|------------|------------|-------------------|
A|------------|------------|-7-7-7--7-7--7--7-7|
E|-3-3-3--0-5-|-7-7-7--5-7-|-------------------|

G|-----------------|-----------------|
D|-----------------|-----------------|
A|-3-3-3-3-3-3-3-3-|-5-5-5-5-5-5-5-5-|
E|-----------------|-----------------|

G|-----------------|-----------------|-----------------|---------|------------|
D|-----------------|-----------------|-----------------|---------|------------|
A|-----------------|-----------------|-----------------|-3-3-3-3-|-5-5-5-5----|
E|-3-3-3-3-3-3-3-3-|-7-7-7-7-7-7-7-7-|-0-0-0-0-0-0-0-0-|---------|----------3-|

G|--------------------|---------------------------|
D|--------------------|---------------------------|
A|---------5--3--2--0-|-------------5--3--2--0----|
E|-3----3-------------|-3----3----3-------------3-|

Almost there ...

Sign in to get your own page with links to favourite songs and more. You are just one click away...

Login with Facebook Login with Google