Log in

One click and you are in

Login with Facebook Login with Google

Why sign up and log in

Guitar Tabs Explorer
Palaye Royale guitar tabs for Masochist

Guitar tabs

Tuning: Standard (E A D G B E)


Intro:
e|--------------------------------|
B|--------------------------------|
G|--------------------------------|
D|--7----7----7-6--5-3---7-6-5-3--|
A|-5-5--5-5--5-5--5-5---5-5-5-5---|
E|--------------------------------|
Verse:
e|-------------------------------------------|
B|-------------------------------------------|
G|-------------------------------------------|
D|--7-6--5-3--7-6--5-3--7-6--5-3--7-6--5-3---|
A|-5-5--5-5--5-5--5-5--5-5--5-5--5-5--5-5----|
E|-------------------------------------------|


Pre Chorus PM:
e|---------------------------|
B|---------------------------|
G|---------------------------|
D|-7-7-7-7-7-7-7-7-7-7-7-7---|
A|-5-5-5-5-5-5-5-5-5-5-5-5---|
E|---------------------------|


Chorus:
e|--------------------------------|
B|--------------------------------|
G|--------------------------------|
D|-7-7-7-7-7-7-7-6-6-6-6-5-5-3-3--|
A|-5-5-5-5-5-5-5-5-5-5-5-5-5-5-5--|X2
E|--------------------------------|

Thats pretty much the whole song :))


************************************

| PM  Palm mute

************************************

↓ Add and view comments below ↓

What do you think about this song and these tabs?

Add your comments, questions, rant or a thumbs up below.

Almost there ...

Sign in to get your own page with links to favourite songs and more. You are just one click away...

Login with Facebook Login with Google