Log in

One click and you are in

Login with Facebook Login with Google

Why sign up and log in

Guitar Tabs Explorer
Palaye Royale bass tabs for Ma chérie

Bass tabs

Tuning: Standard (E A D G)


Intro:
G|----------------------|
D|----------------------|
A|----------------------|
E|-5\---------5\--------|

Verse1:
G|---------------------------|---------------------------|
D|---------------------------|---------------------------|
A|----------4-4--4-----4-----|----------4-4--4-----4-----|
E|-4-5-5--5--------2-2---2-2-|-4-5-5--5--------2-2---2-2-|

G|-------------------------------------------|
D|-------------------------------------------|
A|--------------4-4-4-4--4---------4---------|
E|-4-5-5-5-5--5------------2-2-2-2---2-2-2-2-|


Chorus:
G|------------6-7-9-|----------------------|
D|---4-5-7--7-------|-------6--------------|
A|-5----------------|-4-4-4---4------------|
E|------------------|------------2--2-2--2-|

G|------------6-7-9-|------------------------||
D|---4-5-7--7-------|-------6----------------||
A|-5----------------|-4-4-4---4--------------||
E|------------------|------------2--2-2--2--0||


Verse2: 1:03
G|---------------------------|---------------------------|
D|---------------------------|---------------------------|
A|----------4-4--4-----4-----|----------4-4--4-----4-----|
E|-4-5-5--5--------2-2---2-2-|-4-5-5--5--------2-2---2-2-|

G|-------------------------------------------|
D|-------------------------------------------|
A|--------------4-4-4-4--4---------4---------| X2
E|-4-5-5-5-5--5------------2-2-2-2---2-2-2-2-|

Chorus:
G|------------------|---------------------|
D|---4-5-7--7-------|-------6-------------|
A|-5----------4-5-7-|-4-4-4---4-----------|
E|------------------|-----------2--2-2--2-|

G|------------6-7-9-|----------------------|
D|---4-5-7--7-------|-------6--------------|
A|-5----------------|-4-4-4---4------------|
E|------------------|------------2--2-2--2-|

G|---------------------|----------------------|
D|---------------------|-------6--------------|
A|-5--5--5--5--0-4-5-7-|-4-4-4---4------------|
E|---------------------|------------2--2-2--2-|

G|------------------|-------------------------||
D|---4-5-7--7-------|-------6-----------------||
A|-5---------4-5-7--|-4-4-4---4---------------||
E|------------------|------------2--2-2--2--0-||

Resolve: 2:16
G|--------------------------------|
D|--------------------------------|
A|----9---------------------------|
E|-7----0-0-0-0-0-0-0-0-0-0-0-0-0-|


Chorus:
G|------------------|----------------------|
D|---4-5-7--7-------|----------------------|
A|-5----------4-5-7-|-4-4-4--0h4-----------|
E|------------------|------------2--2-2--2-|

G|------------6-7-9-|----------------------|
D|---4-5-7--7-------|----------------------|
A|-5----------------|-4-4-4--0h4-----------|
E|------------------|------------2--2-2--2-|

G|---------------------|-----------------------|
D|---------------------|-----------------------|
A|-5--5--5--5--0-4-5-7-|-4-4-4---0h4-----------|
E|---------------------|-------------2--2-2--2-|

G|------------------|-----------------------|
D|---4-5-7--7-------|-----------------------|
A|-5---------4-5-7--|-4-4-4---0h4-----------|
E|------------------|-------------2--2-2--2-|


Outro:
G|----------------------------------------------|
D|----------------------------------------------|
A|-5-5-5-5--5-------------4-4-4-4--4------------| x10
E|------------5-5-5-5--5-------------2-2-2-2--5-|

G|-------------------------|
D|-------------------------|
A|-5-----4-----5---4-----5-|
E|----5----2-----5----2----|

***************
| h hammer on
***************

Almost there ...

Sign in to get your own page with links to favourite songs and more. You are just one click away...

Login with Facebook Login with Google