Log in

One click and you are in

Login with Facebook Login with Google

Why sign up and log in

Guitar Tabs Explorer
Palaye Royale bass tabs for Clockwork

Bass tabs

Tuning: Standard (E A D G)


NOTE: this isn’t exactly the same as the original
song, just how I like to play it
Intro:

G|-----------------------------------------|
D|-----------------------------------------|
A|--3-4--3-4--3-4--3-4---------------------|
E|-----------------------------------------|


Verse 1:

G|-----------------------------------------|
D|-----------------------------------------|
A|--3-4--3-4--3-4--3-4---------------------|
E|-----------------------------------------|

G|-----------------------------------------|
D|-----------------------------------------|
A|--3--3-4--4-3--3-4--4-3--3-4--4-3--3-4---|
E|-----------------------------------------|


Pre-Chorus:

G|-----------------------------------------|
D|-----------------------------------------|
A|--4-1---1-4------------------------------|
E|-----------------------------------------|

Verse 2:

G|-----------------------------------------|
D|-----------------------------------------|
A|--4-3--3-4-3----3-4-3----3-4-3----3-4-3--| X2
E|-------------1--------1--------1---------|

(play softly for the first pre-chorus and chorus)


Pre-Chorus:

G|-----------------------------------------|
D|-----------------------------------------|
A|--1x12--4x12-----------------------------|
E|-----------------------------------------|


Chorus:

G|-----------------------------------------|
D|-----------------------------------------|
A|-----------------------------------------| X4
E|--1x6--10x6--5x6--6x6--------------------|

Interlude:

G|-----------------------------------------|
D|-----------------------------------------|
A|--3-4--3-4-------------------------------|
E|-----------------------------------------|


Verse 3:

G|-----------------------------------------|
D|-----------------------------------------|
A|-3--3-4-3----3-4-3----3-4-3----3-4-3-----|
E|----------1--------1--------1------------|

(play second pre-chorus and chorus much louder)


Pre-Chorus:

G|-----------------------------------------|
D|-----------------------------------------|
A|--1x12--4x12-----------------------------|
E|-----------------------------------------|


Chorus:

G|-----------------------------------------|
D|-----------------------------------------|
A|-----------------------------------------| X4
E|--1x6--10x6--5x6--6x6--------------------|

G|-----------------------------------------|
D|-----------------------------------------|
A|-----------------------------------------| X2
E|--1x6--10x4-12-13--5x6--6x6--------------|

Interlude:

G|-----------------------------------------|
D|-----------------------------------------|
A|--3-4--3-4--3-4--3-4---------------------|
E|-----------------------------------------|


Bridge:
(slowly build up to final chorus)
G|-----------------------------------------|
D|-----------------------------------------|
A|--3x6-4x6--------------------------------| X3
E|-----------------------------------------|

G|-----------------------------------------|
D|-----------------------------------------|
A|--3x6-4x4--------------------------------|
E|-----------------------------------------|


Chorus:

G|-----------------------------------------|
D|-----------------------------------------|
A|--8x5-3-5x4-7-8-0x6-1x6------------------| X8
E|-----------------------------------------|


Outro:

G|-----------------------------------------|
D|-----------------------------------------|
A|--3--3-4--4-3--3-4-----------------------|
E|-----------------------------------------|

G|-----------------------------------------|
D|-----------------------------------------|
A|--4-8--3-4--3----------------------------|
E|--------------1--------------------------|

Almost there ...

Sign in to get your own page with links to favourite songs and more. You are just one click away...

Login with Facebook Login with Google