Log in

One click and you are in

Login with Facebook Login with Google

Why sign up and log in

Guitar Tabs Explorer
Doug Paisley chords for Wide open plain

Guitar chords with lyrics

hammer-ons and pull-off as well as the strumming patterns. Look for more updates to the tab
as I figure more of it out. Enjoy.

Wide Open Plain
by Doug Paisley

Capo 2
Intro 1 x2
A chord diagramFF A chord diagramC majorC A chord diagramA minorAm

   A chord diagramFF         A chord diagramC majorC                  A chord diagramA minorAm               A chord diagramC majorC             A chord diagramA minorAm
e-----------------------------------------------------------------------|
B--1----1---------1----1--------1----------------1-----1-1---------1----|
G--2----0---------0-------------2----------------0----------------2-----|
D------------2---------2p0------2----------------2-------------0h2------|
A---------------------------3-----------0-1-0-3--3--2--2----0-----------|
E-------------------------------------3------------------3--------------|


Intro 2 x2

   A chord diagramA minorAm                               A chord diagramFF      A chord diagramFF           A chord diagramA minorAm   A chord diagramG+G       A chord diagramC majorC
e---0h3---3^5---3---0---3---0-------1------1-1---1-1--------------------|
B---1-------6---5---1---5-------1---1------3-1---3-1---0h1----------1---|
G---2-------5---4---2---4-----------2------2-2---2-2---0h2----------0---|
D---2-------------------------------3------3-3---3-3---0h2----------2---|
A-------------------------------------------------------------------3---|
E-----------------------------------------------------------3-----------|


Verse

A chord diagramC majorC              A chord diagramCmaj7Cmaj7
What we put before
    A chord diagramA minorAm           A chord diagramC majorC
The love and the rain
        A chord diagramA minorAm      A chord diagramG+G  A chord diagramFF
and the wide open plain

What we choose to take
What will remain
on the wide open plain

From the skies on high
Nothing has changed
stars appearing out again

In a wave of wind
Flood of rain
We are washed grain by grain

A chord diagramFF A chord diagramG+G A chord diagramFF A chord diagramC majorC

Chorus
A chord diagramFF                             A chord diagramA minorAm     A chord diagramFF
You will not hide inside the shadows
A chord diagramG+G                      A chord diagramFF     A chord diagramG+G
When the day begins again
A chord diagramFF                               A chord diagramA minorAm
You won't be watching from you windows
       A chord diagramFF         A chord diagramG+G
in the wide open plain


break


Verse

Oh they come to me
One by one
in the little time remains

I felt the sting of
deeds I'd done
by which i'd hoped to gain

The melody of
the songs unsung are
drawn out slow with pain

and swelled beyond
horizon lines
on the wide open plain


chorus
you will not see me up and running
for there are no heights to gain
and we will surely see it coming
in the wide open plain


break


verse

we stand once more on
the golden shores
a still and stony train

The sea of glass
the sea that roars
where all their spoils are drained

We'll now and ever
deeply lie
anchoring our chains

and divide us endless
depthless from
the wide open plain


chorus
I wake up trembling in the morning
to a cold and soundless rain
i know beneath these streets aborning

Almost there ...

Sign in to get your own page with links to favourite songs and more. You are just one click away...

Login with Facebook Login with Google