Log in

One click and you are in

Login with Facebook Login with Google

Why sign up and log in

Guitar Tabs Explorer
Brad Paisley bass tabs for Im gonna miss her

Bass tabs

If you want to play along with the CD, tune down 1/2 step.


INTRO:

 G  G/B C  D  D
G|--------|--------|--------|
D|--------|--------|--------|
A|--012-/5|3---5---|5-------|
E|3-------|--------|--------|

VERSE:

 G  G/B C    D    G  D
G|--------|--------|--------|--------|
D|--------|--------|--------|--------|
A|--012---|3---3---|5---5---|--235---|
E|3-------|--------|--------|3-------|

 G  G/B C  A7  G  Em  G  Em  C  A7  D
G|--------|--------|--------|--------|--------|--------|
D|--------|--------|--------|--------|--------|--------|
A|--012---|3---0---|--------|--------|3---0---|5-------|
E|3-------|--------|3-2-0---|3-2-0---|--------|--------|


CHORUS
 C         G         D
G|--------|--------|--------|--------|--------|--------|
D|--------|--------|--------|--------|--------|--------|
A|3-------|3-------|----5---|----2-3-|5-------|5-------|
E|----3---|----3---|3-------|3-------|----5---|----0-2-|

 G         C         G    E7
G|--------|--------|--------|--------|--------|--------|
D|--------|--------|--------|--------|--------|--------|
A|---5----|----0-2-|3-------|3-------|--------|----0-2-|
E|3-------|5-------|----3---|----0-2-|3---2---|0-------|

 C    D    G
G|--------|--------|--------|--------|
D|--------|--------|--------|--------|
A|3-------|5-------|----5---|----0-2-|
E|----3---|----5---|3-------|3-3-----|

GUITAR SOLO
 C         G         D
G|--------|--------|--------|--------|--------|--------|
D|--------|--------|--------|--------|--------|--------|
A|3-------|3-------|----5---|----2-3-|5-------|5-------|
E|---3----|----0-2-|3-------|3-------|----5---|----0-2-|

 G
G|--------|--------|
D|--------|--------|
A|----5---|----0-1-|
E|3-------|3-------|


BRIDGE
 B    Em    A7 D  G    B    Em
G|--------|--0-4-0-|--------|--------|--------|--0-4-0-|
D|--1-4-1-|2-------|--------|--------|--1-4-1-|2-------|
A|2-------|--------|0-4-5---|-----01-|2-------|--------|
E|--------|--------|------2-|3---3---|--------|--------|

 A7    D
G|--------|--------|--------|
D|--------|--------|0-2-3-4-|
A|0-------|5-------|--------|
E|--3-2-0-|---5----|--------|

Almost there ...

Sign in to get your own page with links to favourite songs and more. You are just one click away...

Login with Facebook Login with Google