Log in

One click and you are in

Login with Facebook Login with Google

Why sign up and log in

Guitar Tabs Explorer
Brad Paisley tabs for Ill take you back

Guitar tabs

Drop-D Tuning

E------------------------------------------------------|
B------------------------------------------------------|
G------------------------------------------------------|
D--------------0-0-3bp0--------------------------------|
A--------0h3h5----------5p3p0--------------------------|
D--0h3h5----------------------5p0----------------------|


E------------------------------------------------------|
B------------------------------------------------------|
G------------------------------------------------------|
D--------------0---5-3---------------------------------|
A--------0h3h5---/-----5~------------------------------|
D--0h3h5-----------------------------------------------|


E------------------------------------------------------|
B------------------------------------------------------|
G------------------------------------------------------|
D--------------0-0-3b~p0-------------------------------|
A--------0h3h5-----------5p3p0---5---3---0-----0-------|
D--0h3h5---------------------------x---x---3h5---3~p0--|

Other versions of I'll Take You Back

I'll take you backChords

Almost there ...

Sign in to get your own page with links to favourite songs and more. You are just one click away...

Login with Facebook Login with Google