Log in

One click and you are in

Login with Facebook Login with Google

Why sign up and log in

Guitar Tabs Explorer
Brad Paisley tabs for If love was a plane

Guitar tabs

Intro:
e|--------------------------3h5--3---1--|
A chord diagramBB|----1-1-1---3-3-3---1-1-1--------5-3--|
A chord diagramG+G|----0-0-0---0-0-0---2-2-2----------2--|
A chord diagramD MajorD|----2-2-2---0-0-0---2-2-2----------3--|
A chord diagramA augmentedA|--3-------2-------0-------------------|
A chord diagramE MajorE|--------------------------------------|

e|--------------------------------------|
A chord diagramBB|-1h3p1--------1---1-1-1-------1-------|
A chord diagramG+G|--------0h2-0-0---0-0-0-------0-------|
A chord diagramD MajorD|--------------2---2-2-2-------2-------|
A chord diagramA augmentedA|--------------3---3-3-3---0-2-3-------|
A chord diagramE MajorE|------------------------3-------------|

Verses:
e-----0---0--------1-----1---0--3-----------------|
b-----1---0----3---2-----1---1--------------------|
g-----0---0----3---2-----2---0--------------------|
d-----2---2----3---------3---2--------------------|
a-----3---2------------------3--2---(*)-3-----0--2|
E-------------------------------3----------3------|
  She's 98 pounds, working down at the Dairy Queen...
  He's long haired, no job, and just 19..
  They've got a baby on the way,
  And they're off to the races, in


Chorus:
e-----0---0----------------1-|
b-----1---0----3-----------2-|
g-----0---0----3-----------2-|
d-----2---2----3-------------|
a-----3---2------------------|
E----------------------------|
  love,     Look at em' go.

e----1-----------0------------3-----------------------|
b----1-----------1------------------------------------|
g----2-----------0------------------------------------|
d----3-----------2------------------------------------|
a----------------3------------2---(*)-3-----0--2------|
E-----------------------------3----------3------------|
 Now what in the world can go wrong?  Don't tell them the

e-----0---0-------------------------1----|
b-----1---0----3--------------------2----|
g-----0---0----3--------------------2----|
d-----2---2----3-------------------------|
a-----3---2------------------------------|
E----------------------------------------|
     odds,     It's best they don't know.


e|---1--------------0------------3--------0|
b|---1--------------1---------------------1|
g|---2--------------0---------------------0|
d|---3--------------2---------------------2|
a|------------------3------------2--------3|
A chord diagramE MajorE|-------------------------------3---------|
     If Love was a     plane,     Nobody'd get on.

Almost there ...

Sign in to get your own page with links to favourite songs and more. You are just one click away...

Login with Facebook Login with Google