Log in

One click and you are in

Login with Facebook Login with Google

Why sign up and log in

Guitar Tabs Explorer
Brad Paisley tabs for Easy money

Guitar tabs

key
b=bend
br=release bend
v=vibrato
h=hammer on
p=pulloff
\=slide off , towards neck
/=slide forward, towards body
o=repeat

intro:                                                              1x
||----------------------------3-3-3--------|----------||------------||
||----------------------------3-3-3--------|----------||o----------o||
||--------------------------5b------5br-3--|----------||------------||
||--5--5---5---5-----5-5--5--------------5-|--5--5----||---7--7-----||
||---7--7-7-7-7-7-------7------------------|---7--7-7-||o---9--9-5-o||
||-3--3--3---3---0h3-----3-----------------|-3--3--3--||--5--5--5---||

|----------|-17-19-19\17--15-17-17\15--12-14-14\11--9-11-11\9--8b-8b-8b-8b--|
|----------|-17-19-19\17--15-17-17\15--12-14-14\11--9-11-11\9--8b-8b-8b-8b--|
|----------|----------------------------------------------------------------|
|--5--5----|----------------------------------------------------------------|
|---7--7-7-|----------------------------------------------------------------|
|-3--3--3--|----------------------------------------------------------------|

--8br---9--||
--8br-7-10-||
-----------||
-----------||
-----------||
-----------||


verse-chorus:            1x            13xs
||-----------||------------||-----------||
||-----------||o----------o||----------o||
||o----------||------------||-----------||
||---5--5----||--7--7------||--5--5-----||
||o---7--7-3-||o---9--9-9-o||---7--7-7-o||
||--3--3--3--||-5--5--5----||-3--3--3---||


solo
||-----------------------------------------------------------------------|
||-/12-15-15--15--15--15--15--15----15-15-15----15--15-15-15--15-15-15---|
||-/12-12-14--14b-14b-14b-14b-14br--14-12-12bbr-14--14-12-14--14-12-14b--|
||-----------------------------------------------------------------------|
||-----------------------------------------------------------------------|
||-----------------------------------------------------------------------|

----------------------|----------------------------------------------|
--15------------------|-20--20--20----18--18--18----18---------18-18-|
--14br-14p12--12vvvvv-|-19b-19b-19br--17b-17b-17br--17bbrp15---15-17-|
------------14--------|--------------------------------------17------|
----------------------|----------------------------------------------|
----------------------|----------------------------------------------|

----------------------------------||
--15--15--15--15--15--15---15-15--||
--14b-14b-14b-14b-14b-14br-14-12--||
----------------------------------||
----------------------------------||
----------------------------------||

||-3-------|-2-------|--------|-3-------|-3-------|----------------|
||-0-------|-3-------|--------|-0-------|-0-------|----------------|
||-0-------|-2-------|--------|-0-------|-0-------|--0--0--0--0----|
||-0-------|-0-------|--------|-0-------|-0-------|---2--2--2--2---|
||-2-------|-x-------|-0-2-3--|-2-------|-2-------|-0--0--0--0--0--|
||-3-------|-x-------|--------|-3-------|-3-------|----------------|

as needed
||------||
||-----o||
||o--0--||
||--2---||
||o----o||
||------||

repeat the chorus 2 times then play the outro shown below:

||-----------------------------------------------------------------|
||-/5-5-7-7bbr-7bbr---7-5-5bbr-5bbrp3------5bbrp3------5bbrp3-3-5--|
||-----------------------------------5-3---------5-3---------5-----|
||--------------------------------------5p3---------5-3------------|
||-----------------------------------------------------------------|
||-----------------------------------------------------------------|

|-----------------------------------------------9--9--9--9---|
|---1-3--3/4--4/5--5/6--6/7--7/8--8/9---7-9--9b-9b-9b-9b-9br-|
|-/3---------------------------------7/9---------------------|
|------------------------------------------------------------|
|------------------------------------------------------------|
|------------------------------------------------------------|

|-15--15--15---15-15----15--||
|-14b-14b-14br-14-12-12-12--||
|--------------------14-----||
|---------------------------||
|---------------------------||
|---------------------------||

keep on playing the verse till the end of the song

PLEASE RATE!!

Almost there ...

Sign in to get your own page with links to favourite songs and more. You are just one click away...

Login with Facebook Login with Google