Log in

One click and you are in

Login with Facebook Login with Google

Why sign up and log in

Guitar Tabs Explorer
Brad Paisley tabs for Better than this

Guitar tabs

key:

h=hammer on
/=slide forwards ,towards body
=slide backwards, towards neck
p=pull off
v=vibrato
o=repeat
b=bend
r=roll

Intro:                                         intro lick 1
|--------8-----8------8----------|--8----8---|---------------|
|-0/5-----5-----6-------6--------|---5----6--|---------------|
|-0/5--5---5--5---5--5----5-7b-5-|-5--5-5--5-|-7b-5----------|
|-0/5----------------------------|-----------|------7b-5-----|
|--------------------------------|-----------|-----------7-5-|
|--------------------------------|-----------|---------------|


Verse 1:       2xs           3xs          3xs       7xs
||-------------||-------------||-------------||-----||
||o-----------o||o-----------o||o-----------o||o---o||
||-------------||-------------||-------------||-----||
||o-x-x-5-4-5-o||o-x-x-3-4-3-o||o-x-x-7-6-7-o||o-5-o||
||--x-x-3-2-3--||--x-x-1-2-1--||--x-x-5-4-5--||--3--||
||-------------||-------------||-------------||-----||


chorus:  2xs        3xs      3xs
||---------||--------||--------||---------------|
||o-------o||-------o||-------o||---------------|
||---------||--------||--------||---------------|
||o-5-4-5-o||-3-4-3-o||-5-4-5-o||-9-7-5-3-5---5-|
||--3-2-3--||-1-2-1--||-3-2-3--||-7-5-3-1-3-5-3-|
||---------||--------||--------||-----------3---|

instead off intro lick 1 play intro lick 2 shown below:
|----10--------------|
|--------------------|
|-12b----------------|
|-------12b-10-12-10-|
|--------------------|
|--------------------|

repeat verse and chorus:


solo:
||----------------------------------------------9-------------------|
||------------9b-9-9-9-9-9-9-9--9p8p7--7----------------------------|
||---5-5/7-9--------------------------9--9-7--9b--9b-9p8p7--7vvvvvv-|
||-5r-----------------------------------------------------9---------|
||------------------------------------------------------------------|
||------------------------------------------------------------------|

|-------15---15---15----12-15-12-14p12------------------------------|
|-13-15b--15b--15b--15b---------------15-12-14p12--12---------------|
|------------------------------------------------14--14p12--12vvvvv-|
|---------------------------------------------------------14--------|
|-------------------------------------------------------------------|
|-------------------------------------------------------------------|

|---------------------------------2-4-----9---7-------||
|-----------------------------2-5-----5--/7--7r-9-7---||
|----7b-7b--5b-5b--3b-3b--2b-4------------------------||
|-9b--------------------------------------------------||
|-----------------------------------------------------||
|-----------------------------------------------------||

play the chorus:

heres the chorus lick

||---------------------7h8h10-----||
||---------------7h9h10------10-7-||
||---------7h8h10-----------------||
||---7h9h10-----------------------||
||--------------------------------||
||--------------------------------||

play the intro again but instead of intro lick 1 or 2 play intro lick 3 shown below:
||---------||
||---------||
||-5b-3----||
||------5-||
||------3-||
||---------||

PLEASE RATE!!

Other versions of Better Than This

Better than thisChords

Almost there ...

Sign in to get your own page with links to favourite songs and more. You are just one click away...

Login with Facebook Login with Google