Log in

One click and you are in

Login with Facebook Login with Google

Why sign up and log in

Guitar Tabs Explorer
Brad Paisley bass tabs for Beat this summer

Bass tabs

Tuning: 1/2 Step Down

D# G# C# F#


Intro

G|------------------------|
D|------------------------|
A|--5------------6-----3--| x2
E|--------3---------------|
Verse

G|----------------------------------------------------------|
D|----------------------------------------------------------|
A|-5-5-----------6-----3-----5-5-----------6-----3-/5-3-----|
E|---------3-------------------------3------------------5-3-|


Chorus

G|-------------------------------------------|
D|-------------------------------------------|
A|------------6---6-6---3---3-3---5---5-5--6-| x2
E|--3---3-3----------------------------------|

Pre-Verse

I'm not sure if there is actually bass in this bit but if you want to play something;

G|------------------------|
D|------------------------|
A|--5------------6-----3--|
E|--------3---------------|

Verse 2

G|----------------------------------------------------------|
D|----------------------------------------------------------|
A|-5-5-----------6-----3-------5-----------6-----3-/5-3-----|
E|---------3-------------------------3------------------5-3-|


Bridge

G|-----------------------------------------|
D|-----------------------------------------|
A|--5---5-5---5---5-5---1---1-1---1---1-1--|
E|-----------------------------------------|

G|------------------------------------------|
D|------------------------------------------|
A|--3---3-3---3---3-3---5---5-5---5---5-5---|
E|------------------------------------------|


Chorus 3

G|--------------------------------------------------------------------------------|
D|--------------------------------------------------------------------------------|
A|------------6---------3---3-3---5---5-5--6----------6---6-6--3---3-3--5---5-5---|
E|--3----------------------------------------3---3-3------------------------------|


Outro

G|-------------------------------------------|
D|-------------------------------------------|
A|------------6---6-6---3---3-3---5---5-5--6-| x4
E|--3---3-3----------------------------------|


Playing Order


Intro

Verse

Chorus
Pre-Verse

Verse 2

Chorus 2

Chorus

bridge

Chorus 3

Outro


Have Fun

| / slide up
| \ slide down
| h hammer-on
| p pull-off
| ~ vibrato
| + harmonic
| x Mute note

Almost there ...

Sign in to get your own page with links to favourite songs and more. You are just one click away...

Login with Facebook Login with Google