Log in

One click and you are in

Login with Facebook Login with Google

Why sign up and log in

Guitar Tabs Explorer
Brad Paisley tabs for All i wanted was a car

Guitar tabs

Standard Tuning (EADGBE)


|------------------------------|
|------------------------------|
|------------------------------|
|-xxxxx-3/9-12/3-xxxx-3/9-17/3-|
|-xxxxx-3/9-12/3-xxxx-3/9-17/3-|
|-xxxxx-1/7-10/1------1/7-15/1-|
Now this little solo diddly part i couldn't really get, but i believe i got the first
notes in the beginning

|-----------------|
|-----------------|
|-----------------|
|-----------------|
|-------------/15-|
|-0h1-0h3-0h3-----|


|-------|-------------------------------------|
|-------|o-----------------------------------o|
|-------|--------------------3----------------|  x4
|-------|-----3--3--------3--3----------------|
|-x-11/-|o----3--3-0-1/2--1-----0-2b-0-1b(2)-o|
|-x-----|---1--1------------------------------|

Then it goes on into the song...

x- muted strings
/- slide to shown note
h- hammer on
b- bend (to note if shown)

Other versions of All I Wanted Was A Car

All I wanted was a carChords
All I wanted was a car ukuleleChords

Almost there ...

Sign in to get your own page with links to favourite songs and more. You are just one click away...

Login with Facebook Login with Google