Log in

One click and you are in

Login with Facebook Login with Google

Why sign up and log in

Guitar Tabs Explorer
Paint It Black bass tabs for Gravity wins

Bass tabs

-------------------------------------------------------------------------------
             Gravity Wins - Paint it Black
-------------------------------------------------------------------------------

Tabbed By: Michael Hanns
E-mail: savehaanzfromwork@gmail.com

One of the best songs on Paint it Black's bass-driven New Lexicon.
I'm pretty sure this is correct except for a couple passing notes,
and I'm not 100% on the ryhthm/number of B notes in the first part
of the outro variation.
Comments/corrections/criticism welcomed with open arms.

Tuning: EADG


Main riff:

G|--------------------------------------------------------------------|
D|--------------------------------------------------------------------|
A|-------------33662-x2200-2-x22222-------------33662-x22-0-2-x22-32--|
E|-0-x033665-x0-----------0---------0-x033665-x0---------0-0-----5--0-|

--
Slide up to fret 6 on the E string right after the "Hands off our bodies,
hands off our hearts." bit (roughly 0:32-0:33 in the song).
--


Outro (1:08ish, after "instead of trying to live your life right!"):

G|-----------------------------------------------|
D|-----------------------------------------------|
A|-------------336622222222-2-222-222-222-222-2--|
E|-0-x033665-x0----------------------------------|

G|-----------------------------------|
D|-----------------------------------|
A|-----------------22222-3-22222-32--|
E|-0-x0336655555555-----5-5-----5--0-|

Almost there ...

Sign in to get your own page with links to favourite songs and more. You are just one click away...

Login with Facebook Login with Google