Log in

One click and you are in

Login with Facebook Login with Google

Why sign up and log in

Guitar Tabs Explorer
Pain Of Salvation tabs for Softly she cries

Guitar tabs

Drop A chord diagramA augmentedA tuning (A chord diagramA augmentedA A chord diagramE MajorE A chord diagramA augmentedA A chord diagramD MajorD A chord diagramG+G A chord diagramBB A chord diagramE MajorE)

Daniel plays his parts on a fretless guitar, but it's arranged for a fretted guitar here.


Intro riff/Verse
|------------------------------------|
|------------------------------------|
|------------------------------------|
|------------------------------------|
|------------------------------------|
|------------------------------------|
|--1-4-6-6b7r6-4-6---1-4-6-6b7---6---|

|------------------------------------|
|------------------------------------|
|------------------------------------|
|------------------------------------|
|--1-4-6-6b7r6-4-6---1-4-6-6b7---6---|
|--1-4-6-6b7r6-4-6---1-4-6-6b7---6---|
|--1-4-6-6b7r6-4-6---1-4-6-6b7---6---|


Chorus
|----------------------------------|
|----------------------------------|
|----------------------------------|
|----------------------------------|
|--4---4---4---4---4---4---4---4---|
|--4---4---4---4---4---4---4---4---|
|--4---4---4---4---4---4---4---4---| x3

|------------------------------------|
|------------------------------------|
|------------------------------------|
|------------------------------------|
|--4---4---4---0-----0---2--2--2--2--|
|--4---4---4---0-----0---2--2--2--2--|
|--4---4---4---0-----0---2--2--2--2--|

Interlude
|----------------------------------------------------------------------------|
|----------------------------------------------------------------------------|
|----------------------------------------------------------------------------|
|----------------------------------------------------------------------------|
|--1--1--1---1--1--1---1--1--1---1--2----1--1--1----1--1--1--1-1-1--1-1////--|
|--1--1--1---1--1--1---1--1--1---1--2----1--1--1----1--1--1--1-1-1--1-1////--|
|--1--1--1---1--1--1---1--1--1---1--2----1--1--1----1--1--1--1-1-1--1-1////--|


Solo
|---------------------------------------------------|
|---------------------------------------------------|
|---------------------------------------------------|
|---------------------------------------------------|
|--5---\3---/5---5/8\3---3\1/5----------------------|
|-------------------------------6\4--4---1-4/6--6---|
|---------------------------------------------------|

|----------------------------------------------------|
|----------------------------------------------------|
|----------------------------------------------------|
|----------------------------------------------------|
|--5h6/8/11---5h6/8/13---5h6/8/15---15\11--6\5--6\5--|
|----------------------------------------------------|
|----------------------------------------------------|

|----------------------------------|
|----------------------------------|
|----------------------------------|
|----------------------------------|
|--8--5\3--1/5---------------------|
|---------------6\4--4--1--4/6--6--|
|----------------------------------|

|-------------------------------------------------------|
|-------------------------------------------------------|
|-------------------------------------------------------|
|-------------------------------------------------------|
|-----------3/5--5---5/7--7--5/8---7h8/10p7h8\5/7\3\1---|
|--6/8--8-----------------------------------------------|
|-------------------------------------------------------|

|-------------------------------------------------------|
|-------------------------------------------------------|
|-------------------------------------------------------|
|-------------------------------------------------------|
|-------------------------------------------------------|
|--4p3h4--3p1h3-----------------------------------------|
|----------------8p6h8--6p5h6p5--/11--13\1--------------|

I ended up using live videos for the most part but the solo was pretty hard to see due

Almost there ...

Sign in to get your own page with links to favourite songs and more. You are just one click away...

Login with Facebook Login with Google