Log in

One click and you are in

Login with Facebook Login with Google

Why sign up and log in

Guitar Tabs Explorer
Pain Of Salvation tabs for Dryad of the woods

Guitar tabs with lyrics

Dryad of the Woods

Pain of Salvation
Daniel Gildenlöw - guitar

     A chord diagramA minorAm         A chord diagramG+G             A chord diagramFF          A chord diagramC majorC    A chord diagramG+G
     ^          ^             ^               ^
     A chord diagramE MajorE  A chord diagramE MajorE  Q    A chord diagramE MajorE  A chord diagramE MajorE  Q       Q    A chord diagramE MajorE  A chord diagramE MajorE  Q    Q
A chord diagramE MajorE||------------------------|-----------------------|
A chord diagramBB||--1--0-------0----------|-----------------------|
A chord diagramG+G||--------2-------2--0----|--2----0----------0----|
A chord diagramD MajorD||--2----------0----------|--3-------3--2----0----|
A chord diagramA augmentedA||--0---------------------|-------------3----2----|
A chord diagramE MajorE||-------------3----------|--1--------------------|


  A chord diagramA5A5          A chord diagramDsus2Dsus2             A chord diagramEsus4Esus4       E/D
  ^           ^                 ^
  A chord diagramE MajorE  A chord diagramE MajorE  A chord diagramE MajorE  A chord diagramE MajorE  A chord diagramE MajorE     A chord diagramE MajorE  A chord diagramE MajorE  A chord diagramE MajorE     Q     A chord diagramE MajorE  A chord diagramE MajorE  Q    Q
--------------0-----1--------|------------------------|
-----0--1--3-----------3--1--|--0-----0-----0---------|
--2-----------2--------------|--2-----2-----1----1----|
--2-----------0--------------|-------------------0----|
--0--------------------------|------------------------|
-----------------------------|--0--------0------------|


  A chord diagramA minorAm         A chord diagramG+G             A chord diagramFF          A chord diagramE5E5
  ^          ^             ^          ^
  A chord diagramE MajorE  A chord diagramE MajorE  Q    A chord diagramE MajorE  A chord diagramE MajorE  Q       Q    A chord diagramE MajorE  A chord diagramE MajorE  A chord diagramE MajorE  A chord diagramE MajorE  Q
------------------------|------------------------|
--1--0-------0----------|------------------------|
--------2-------2--0----|--2----0-----------1----|
--2----------0----------|--3-------3--2--2-------|
--0---------------------|-------------2----------|
-------------3----------|--1----------0----------|

  A chord diagramC/FC/F          A chord diagramAsus2Asus2             A chord diagramBb5Bb5          A chord diagramE MajorE
  ^            ^                 ^            ^
  A chord diagramE MajorE   A chord diagramE MajorE  A chord diagramE MajorE  A chord diagramE MajorE  A chord diagramE MajorE     A chord diagramE MajorE  A chord diagramE MajorE  A chord diagramE MajorE     A chord diagramE MajorE   A chord diagramE MajorE  A chord diagramE MajorE  A chord diagramE MajorE  A chord diagramE MajorE  A chord diagramE MajorE  A chord diagramE MajorE  A chord diagramE MajorE
------------------------------|---------------------------|
---------------0-----1-----0--|------------------------0--|
---------0--2--2--------2-----|--3---2--0--------1--2-----|
--2---3-----------------------|--3---------3--2-----------|
--3------------0--------------|--1------------2-----------|
--1---------------------------|---------------0-----------|


  A chord diagramA minorAm         A chord diagramG+G             A chord diagramFF          A chord diagramC majorC    A chord diagramG+G
  ^          ^             ^               ^
  A chord diagramE MajorE  A chord diagramE MajorE  Q    A chord diagramE MajorE  A chord diagramE MajorE  Q       Q    A chord diagramE MajorE  A chord diagramE MajorE  Q    Q
------------------------|-----------------------|
--1--0-------0----------|-----------------------|
--------2-------2--0----|--2----0----------0----|
--2----------0----------|--3-------3--2----0----|
--0---------------------|-------------3----2----|
-------------3----------|--1--------------------|


  A chord diagramA5A5          A chord diagramDsus2Dsus2             A chord diagramEsus4Esus4       E/D
  ^           ^                 ^
  A chord diagramE MajorE  A chord diagramE MajorE  A chord diagramE MajorE  A chord diagramE MajorE  A chord diagramE MajorE     A chord diagramE MajorE  A chord diagramE MajorE  A chord diagramE MajorE     Q     A chord diagramE MajorE  A chord diagramE MajorE  Q    Q
--------------0-----1--------|------------------------|
-----0--1--3-----------3--1--|--0-----0-----0---------|
--2-----------2--------------|--2-----2-----1----1----|
--2-----------0--------------|-------------------0----|
--0--------------------------|------------------------|
-----------------------------|--0--------0------------|


  A chord diagramA minorAm         A chord diagramG+G             A chord diagramFF          A chord diagramE MajorE
  ^          ^             ^          ^
  A chord diagramE MajorE  A chord diagramE MajorE  Q    A chord diagramE MajorE  A chord diagramE MajorE  Q       Q    A chord diagramE MajorE  A chord diagramE MajorE  A chord diagramE MajorE  A chord diagramE MajorE  Q
------------------------|------------------------|
--1--0-------0----------|------------------------|
--------2-------2--0----|--2----0-----------1----|
--2----------0----------|--3-------3--2--2-------|
--0---------------------|-------------2----------|
-------------3----------|--1----------0----------|


  F7M          A chord diagramAsus2Asus2             A chord diagramBb5Bb5          A chord diagramE MajorE
  ^            ^                 ^            ^
  A chord diagramE MajorE   A chord diagramE MajorE  A chord diagramE MajorE  A chord diagramE MajorE  A chord diagramE MajorE     A chord diagramE MajorE  A chord diagramE MajorE  A chord diagramE MajorE     A chord diagramE MajorE   A chord diagramE MajorE  A chord diagramE MajorE  A chord diagramE MajorE  A chord diagramE MajorE  A chord diagramE MajorE  A chord diagramE MajorE  A chord diagramE MajorE
------------------------------|---------------------------|
---------------0-----1-----0--|------------------------0--|
---------0--2--2--------2-----|--3---2--0--------1--2-----|
--2---3-----------------------|--3---------3--2-----------|
--3------------0--------------|--1------------2-----------|
--1---------------------------|---------------0-----------|


  A chord diagramA minorAm         A chord diagramG+G             A chord diagramA minorAm          A chord diagramE minorEm
  ^          ^             ^
  A chord diagramE MajorE  A chord diagramE MajorE  Q    A chord diagramE MajorE  A chord diagramE MajorE  Q       A chord diagramE MajorE  A chord diagramE MajorE  A chord diagramE MajorE  A chord diagramE MajorE  A chord diagramE MajorE  A chord diagramE MajorE  Q
--0--1--0-------0-------|--------0----------------|
--1----------3-----3----|--1--3-----1--0----------|
-------------4-----4----|--2--------------0-------|
------------------------|--------------------2----|
--0---------------------|--0----------------------|
-------------3----------|-------------------------|


                               rit.
  A chord diagramA minorAm         Am/G#             A chord diagramAm/GAm/G          A chord diagramAsus2Asus2
  ^          ^                 ^
  A chord diagramE MajorE  A chord diagramE MajorE  Q    A chord diagramE MajorE     A chord diagramE MajorE  A chord diagramE MajorE  A chord diagramE MajorE     A chord diagramE MajorE    A chord diagramE MajorE  A chord diagramE MajorE  A chord diagramE MajorE  A chord diagramE MajorE     S  S Q
--0--1--0----0-----1--0-----|--0----1--0--5--0---------------|
--1----------1-----------1--|--1-------------------1p-0------|
----------------------------|---------------------------2----|
----------------------------|--------------------------------|
--0-------------------------|--------------------------------|
-------------4--------------|--3-----------------------------|


  A chord diagramFsus2Fsus2          A chord diagramE minorEm             A chord diagramG+G           A chord diagramD/F#D/F#
  ^              ^              ^
  A chord diagramE MajorE     A chord diagramE MajorE  A chord diagramE MajorE  A chord diagramE MajorE  A chord diagramE MajorE  A chord diagramE MajorE  A chord diagramE MajorE  A chord diagramE MajorE     A chord diagramE MajorE  A chord diagramE MajorE  A chord diagramE MajorE  A chord diagramE MajorE  A chord diagramE MajorE    A chord diagramE MajorE  A chord diagramE MajorE  A chord diagramE MajorE
-----------------------------|----------------------------|
-----------------------------|----------------------------|
--0--------------0-----0-----|-----------0----------2-----|
--------0--2--3-----4-----2--|--0-----0-----0----------0--|
--3--------------2-----------|-----2-------------0--------|
--1--------------0-----------|--3-----------2-------------|


  A chord diagramFsus2Fsus2          A chord diagramE minorEm             A chord diagramG+G           A chord diagramE minorEm
  ^              ^
  A chord diagramE MajorE     A chord diagramE MajorE  A chord diagramE MajorE  A chord diagramE MajorE  A chord diagramE MajorE  A chord diagramE MajorE  A chord diagramE MajorE  A chord diagramE MajorE     A chord diagramE MajorE  A chord diagramE MajorE  A chord diagramE MajorE  A chord diagramE MajorE  S  S  A chord diagramE MajorE  A chord diagramE MajorE  A chord diagramE MajorE
-----------------------------|-----------------------------|
-----------------------------|--------------0h-1p-0--------|
--0--------------0-----0-----|-----------2-----------0-----|
--------0--2--3-----4-----2--|--0-----0--------------------|
--3--------------2-----------|-----2-----------------------|
--1--------------0-----------|--3-----2-----0-----------0--|


  A chord diagramFsus2Fsus2          A chord diagramE minorEm             A chord diagramG+G           A chord diagramD/F#D/F#
  ^              ^              ^
  A chord diagramE MajorE     A chord diagramE MajorE  A chord diagramE MajorE  A chord diagramE MajorE  A chord diagramE MajorE  A chord diagramE MajorE  A chord diagramE MajorE  A chord diagramE MajorE     A chord diagramE MajorE  A chord diagramE MajorE  A chord diagramE MajorE  A chord diagramE MajorE  A chord diagramE MajorE    A chord diagramE MajorE  A chord diagramE MajorE  A chord diagramE MajorE
-----------------------------|----------------------------|
-----------------------------|----------------------------|
--0--------------0-----0-----|-----------0----------2-----|
--------0--2--3-----4-----2--|--0-----0-----0----------0--|
--3--------------2-----------|-----2-------------0--------|
--1--------------0-----------|--3-----------2-------------|


  A chord diagramFsus2Fsus2          A chord diagramE minorEm             A chord diagramG+G     A chord diagramD/F#D/F#    A chord diagramG+G
  ^              ^
  A chord diagramE MajorE     A chord diagramE MajorE  A chord diagramE MajorE  A chord diagramE MajorE  A chord diagramE MajorE  A chord diagramE MajorE  A chord diagramE MajorE  A chord diagramE MajorE     A chord diagramE MajorE  A chord diagramE MajorE  A chord diagramE MajorE    A chord diagramE MajorE  S  S  A chord diagramE MajorE  A chord diagramE MajorE  A chord diagramE MajorE
-----------------------------|-------------------------------|
-----------------------------|----------------0h-1p-0--------|
--0--------------0-----0-----|-------------2-----------0-----|
--------0--2--3-----4-----2--|--0-----0-------------------3--|
--3--------------2-----------|-----2-------------------------|
--1--------------0-----------|--3-----2-------3--------------|


  S S S S S S S S A chord diagramE MajorE  S S S S S S    S S S S   S  S S   S  S S Q.
---------------------------------|---------------5-------------------|
---------------------------0-----|--------3h-(5)---5p-(3)-3-1-1------|
--------0-0------------0-2---2-0-|------2-----------------0-0-0------|
--0-2-2-----2-2---0--0-----------|--0-2------------------------------|
----------------3----------------|-----------------------------------|
---------------------------------|-----------------------------------|


  S S S S S S S S A chord diagramE MajorE  S S S S S S    S S S S   S  S S   S  H
---------------------------------|---------------5-----------------|
---------------------------0-----|--------3h-(5)---5p-(3)-1--------|
--------0-0------------0-2---2-0-|------2-----------------0--------|
--0-2-2-----2-2---0--0-----------|--0-2----------------------------|
----------------3----------------|---------------------------------|
---------------------------------|---------------------------------|


  S S S S S S S S A chord diagramE MajorE  S S S S S S    S S S S   S  S S   S  S S Q.
---------------------------------|---------------5-------------------|
---------------------------0-----|--------3h-(5)---5p-(3)-3-1-1------|
--------0-0------------0-2---2-0-|------2-----------------0-0-0------|
--0-2-2-----2-2---0--0-----------|--0-2------------------------------|
----------------3----------------|-----------------------------------|
---------------------------------|-----------------------------------|


                                                          ^
  S S S S S S S S A chord diagramE MajorE  S S S S S S    S S S S   S  S S   S  H
---------------------------------|---------------5-----------------|
---------------------------0-----|--------3h-(5)---5p-(3)-2--------|
--------0-0------------0-2---2-0-|------2-----------------2--------|
--0-2-2-----2-2---0--0-----------|--0-2----------------------------|
----------------3----------------|------------------------0--------|
---------------------------------|---------------------------------|


  A chord diagramA minorAm         A chord diagramG+G             A chord diagramFF          A chord diagramC majorC    A chord diagramG+G
  ^          ^             ^               ^
  A chord diagramE MajorE  A chord diagramE MajorE  Q    A chord diagramE MajorE  A chord diagramE MajorE  Q       Q    A chord diagramE MajorE  A chord diagramE MajorE  Q    Q
------------------------|-----------------------|
--1--0-------0----------|-----------------------|
--------2-------2--0----|--2----0----------0----|
--2----------0----------|--3-------3--2----0----|
--0---------------------|-------------3----2----|
-------------3----------|--1--------------------|


  A chord diagramA5A5          A chord diagramDsus2Dsus2             A chord diagramEsus4Esus4       E/D
  ^           ^                 ^
  A chord diagramE MajorE  A chord diagramE MajorE  A chord diagramE MajorE  A chord diagramE MajorE  A chord diagramE MajorE     A chord diagramE MajorE  A chord diagramE MajorE  A chord diagramE MajorE     Q     A chord diagramE MajorE  A chord diagramE MajorE  Q    Q
--------------0-----1--------|------------------------|
-----0--1--3-----------3--1--|--0-----0-----0---------|
--2-----------2--------------|--2-----2-----1----1----|
--2-----------0--------------|-------------------0----|
--0--------------------------|------------------------|
-----------------------------|--0--------0------------|


  A chord diagramA minorAm          A chord diagramG+G             A chord diagramFF          A chord diagramE MajorE
  ^           ^             ^          ^
  A chord diagramE MajorE  A chord diagramE MajorE  A chord diagramE MajorE  A chord diagramE MajorE  A chord diagramE MajorE  A chord diagramE MajorE  Q       Q    A chord diagramE MajorE  A chord diagramE MajorE  H
-------------------------|----------------------|
--1--0--------0----------|----------------------|
--------2--------2--0----|--2----0-----1--------|
--2-----------0----------|--3-------3--2--------|
--0--------0-------------|----------------------|
--------------3----------|--1----------0--------|


  F7M          A chord diagramAsus2Asus2             A chord diagramBb5Bb5          A chord diagramE5E5
  ^            ^                 ^            ^
  A chord diagramE MajorE   A chord diagramE MajorE  A chord diagramE MajorE  A chord diagramE MajorE  A chord diagramE MajorE     A chord diagramE MajorE  A chord diagramE MajorE  A chord diagramE MajorE     A chord diagramE MajorE   A chord diagramE MajorE  A chord diagramE MajorE  A chord diagramE MajorE  A chord diagramE MajorE  A chord diagramE MajorE  A chord diagramE MajorE  A chord diagramE MajorE
------------------------------|---------------------------|
---------------0-----1-----0--|------------------------0--|
---------0--2--2--------2-----|--3---2--0--------1--2-----|
--2---3-----------------------|--3---------3--2-----------|
--3------------0--------------|--1------------2-----------|
--1---------------------------|---------------0-----------|


  A chord diagramA minorAm         A chord diagramE7E7            A chord diagramA minorAm          A chord diagramE minorEm
  ^          ^             ^
  A chord diagramE MajorE  A chord diagramE MajorE  Q    A chord diagramE MajorE  A chord diagramE MajorE  Q       A chord diagramE MajorE  A chord diagramE MajorE  A chord diagramE MajorE  A chord diagramE MajorE  A chord diagramE MajorE  A chord diagramE MajorE  Q
--0--1--0-------0-------|--------0----------------|
--1----------3-----3----|--1--3-----1--0----------|
-------------4-----4----|--2--------------0-------|
------------------------|--------------------2----|
--0---------------------|--0----------------------|
-------------0----------|-------------------------|


                               rit.
  A chord diagramA minorAm         Am/G#             A chord diagramAm/GAm/G          A chord diagramAsus2Asus2
  ^                            ^
  A chord diagramE MajorE  A chord diagramE MajorE  Q    A chord diagramE MajorE     A chord diagramE MajorE  A chord diagramE MajorE  A chord diagramE MajorE     A chord diagramE MajorE    A chord diagramE MajorE  A chord diagramE MajorE  A chord diagramE MajorE  A chord diagramE MajorE     S  S Q
--0--1--0----0-----1--0-----|--0----1--0--5--0---------------|
--1----------1-----------1--|--1-------------------1p-0------|
----------------------------|---------------------------2----|
----------------------------|--------------------------------|
--0-------------------------|--------------------------------|
-------------4--------------|--3-----------------------------|


  A chord diagramFsus2Fsus2          A chord diagramE minorEm             A chord diagramG+G           A chord diagramD/F#D/F#
  ^              ^              ^
  A chord diagramE MajorE     A chord diagramE MajorE  A chord diagramE MajorE  A chord diagramE MajorE  A chord diagramE MajorE  A chord diagramE MajorE  A chord diagramE MajorE  A chord diagramE MajorE     A chord diagramE MajorE  A chord diagramE MajorE  A chord diagramE MajorE  A chord diagramE MajorE  A chord diagramE MajorE    A chord diagramE MajorE  A chord diagramE MajorE  A chord diagramE MajorE
-----------------------------|----------------------------|
-----------------------------|----------------------------|
--0--------------0-----0-----|-----------0----------2-----|
--------0--2--3-----4-----2--|--0-----0-----0----------0--|
--3--------------2-----------|-----2-------------0--------|
--1--------------0-----------|--3-----------2-------------|


  A chord diagramFsus2Fsus2          A chord diagramE minorEm             A chord diagramG+G           A chord diagramE minorEm
  ^              ^
  A chord diagramE MajorE     A chord diagramE MajorE  A chord diagramE MajorE  A chord diagramE MajorE  A chord diagramE MajorE  A chord diagramE MajorE  A chord diagramE MajorE  A chord diagramE MajorE     A chord diagramE MajorE  A chord diagramE MajorE  A chord diagramE MajorE  A chord diagramE MajorE  S  S  A chord diagramE MajorE  A chord diagramE MajorE  A chord diagramE MajorE
-----------------------------|-----------------------------|
-----------------------------|--------------0h-1p-0--------|
--0--------------0-----0-----|-----------2-----------0-----|
--------0--2--3-----4-----2--|--0-----0--------------------|
--3--------------2-----------|-----2-----------------------|
--1--------------0-----------|--3-----2-----0-----------0--|


  A chord diagramFsus2Fsus2          A chord diagramE minorEm             A chord diagramG+G           A chord diagramD/F#D/F#
  ^              ^              ^
  A chord diagramE MajorE     A chord diagramE MajorE  A chord diagramE MajorE  A chord diagramE MajorE  A chord diagramE MajorE  A chord diagramE MajorE  A chord diagramE MajorE  A chord diagramE MajorE     A chord diagramE MajorE  A chord diagramE MajorE  A chord diagramE MajorE  A chord diagramE MajorE  A chord diagramE MajorE    A chord diagramE MajorE  A chord diagramE MajorE  A chord diagramE MajorE
-----------------------------|----------------------------|
-----------------------------|----------------------------|
--0--------------0-----0-----|-----------0----------2-----|
--------0--2--3-----4-----2--|--0-----0-----0----------0--|
--3--------------2-----------|-----2-------------0--------|
--1--------------0-----------|--3-----------2-------------|


  A chord diagramFsus2Fsus2          A chord diagramE minorEm             A chord diagramG+G     A chord diagramD/F#D/F#    A chord diagramG+G
  ^              ^
  A chord diagramE MajorE     A chord diagramE MajorE  A chord diagramE MajorE  A chord diagramE MajorE  A chord diagramE MajorE  A chord diagramE MajorE  A chord diagramE MajorE  A chord diagramE MajorE     A chord diagramE MajorE  A chord diagramE MajorE  A chord diagramE MajorE    A chord diagramE MajorE  S  S  A chord diagramE MajorE  A chord diagramE MajorE  A chord diagramE MajorE
-----------------------------|-------------------------------|
-----------------------------|----------------0h-1p-0--------|
--0--------------0-----0-----|-------------2-----------0-----|
--------0--2--3-----4-----2--|--0-----0-------------------3--|
--3--------------2-----------|-----2-------------------------|
--1--------------0-----------|--3-----2-------3--------------|


  S S S S S S S S A chord diagramE MajorE  S S S S S S    S S S S   S  S S   S  S S Q.
---------------------------------|---------------5-------------------|
---------------------------0-----|--------3h-(5)---5p-(3)-3-1-1------|
--------0-0------------0-2---2-0-|------2-----------------0-0-0------|
--0-2-2-----2-2---0--0-----------|--0-2------------------------------|
----------------3----------------|-----------------------------------|
---------------------------------|-----------------------------------|


  S S S S S S S S A chord diagramE MajorE  S S S S S S    S S S S   S  S S   S  H
---------------------------------|---------------5-----------------|
---------------------------0-----|--------3h-(5)---5p-(3)-1--------|
--------0-0------------0-2---2-0-|------2-----------------0--------|
--0-2-2-----2-2---0--0-----------|--0-2----------------------------|
----------------3----------------|---------------------------------|
---------------------------------|---------------------------------|


  S S S S S S S S A chord diagramE MajorE  S S S S S S    S S S S   S  S S   S  S S Q.
---------------------------------|---------------5-------------------|
---------------------------0-----|--------3h-(5)---5p-(3)-3-1-1------|
--------0-0------------0-2---2-0-|------2-----------------0-0-0------|
--0-2-2-----2-2---0--0-----------|--0-2------------------------------|
----------------3----------------|-----------------------------------|
---------------------------------|-----------------------------------|


                                                          ^
  S S S S S S S S A chord diagramE MajorE  S S S S S S    S S S S   S  S S   S  H
---------------------------------|---------------5-----------------|
---------------------------0-----|--------3h-(5)---5p-(3)-2--------|
--------0-0------------0-2---2-0-|------2-----------------2--------|
--0-2-2-----2-2---0--0-----------|--0-2----------------------------|
----------------3----------------|------------------------0--------|
---------------------------------|---------------------------------|


  S A chord diagramE MajorE  A chord diagramE MajorE  A chord diagramE MajorE  A chord diagramE MajorE  A chord diagramE MajorE  A chord diagramE MajorE  A chord diagramE MajorE  S    S A chord diagramE MajorE  A chord diagramE MajorE  A chord diagramE MajorE  A chord diagramE MajorE  A chord diagramE MajorE  A chord diagramE MajorE  A chord diagramE MajorE  S
----0-----0-----0-----0----|----0-----0-----0-----0----|
-------4-----2-----0-------|-------4-----2-----0-----2-|
-------------------------2-|--L------------------------|
---------------------------|---------------------------|
---------------------------|---------------------------|
---------------------------|---------------------------|


  S A chord diagramE MajorE  A chord diagramE MajorE  A chord diagramE MajorE  A chord diagramE MajorE  A chord diagramE MajorE  A chord diagramE MajorE  A chord diagramE MajorE  S    S A chord diagramE MajorE  A chord diagramE MajorE  A chord diagramE MajorE  A chord diagramE MajorE  A chord diagramE MajorE  A chord diagramE MajorE  A chord diagramE MajorE  S
----0-----0-----0-----0----|----0-----0-----0-----0----|
--L----4-----2-----0-------|-------4-----2-----0-----2-|
-------------------------1-|--L------------------------|
---------------------------|---------------------------|
---------------------------|---------------------------|
---------------------------|---------------------------|


  S A chord diagramE MajorE  A chord diagramE MajorE  A chord diagramE MajorE  A chord diagramE MajorE  A chord diagramE MajorE  A chord diagramE MajorE  A chord diagramE MajorE  S    S A chord diagramE MajorE  A chord diagramE MajorE  A chord diagramE MajorE  A chord diagramE MajorE  A chord diagramE MajorE  A chord diagramE MajorE  A chord diagramE MajorE  S
----0-----0-----0-----0----|----0-----0-----0-----0----|
--L----4-----2-----0-------|-------4-----2-----0-----2-|
-------------------------2-|--L------------------------|
---------------------------|---------------------------|
---------------------------|---------------------------|
---------------------------|---------------------------|


  S A chord diagramE MajorE  A chord diagramE MajorE  A chord diagramE MajorE  A chord diagramE MajorE  A chord diagramE MajorE  A chord diagramE MajorE  A chord diagramE MajorE  S    S A chord diagramE MajorE  A chord diagramE MajorE  A chord diagramE MajorE  A chord diagramE MajorE  A chord diagramE MajorE  A chord diagramE MajorE  A chord diagramE MajorE  S
----0-----0-----0-----0----|----0-----0-----0-----0----|
--L----4-----2-----0-------|-------4-----2-----0-----2-|
-------------------------1-|--L------------------------|
---------------------------|---------------------------|
---------------------------|---------------------------|
---------------------------|---------------------------|


  S A chord diagramE MajorE  A chord diagramE MajorE  A chord diagramE MajorE  A chord diagramE MajorE  A chord diagramE MajorE  A chord diagramE MajorE  A chord diagramE MajorE  S    S A chord diagramE MajorE  A chord diagramE MajorE  A chord diagramE MajorE  A chord diagramE MajorE  A chord diagramE MajorE  A chord diagramE MajorE  A chord diagramE MajorE  S
----0-----0-----0-----0----|----0-----0-----0-----0----|
--L----4-----2-----0-------|-------4-----2-----0-----2-|
-------------------------2-|--L------------------------|
---------------------------|---------------------------|
---------------------------|---------------------------|
---------------------------|---------------------------|


  S A chord diagramE MajorE  A chord diagramE MajorE  A chord diagramE MajorE  A chord diagramE MajorE  A chord diagramE MajorE  A chord diagramE MajorE  A chord diagramE MajorE  S    S A chord diagramE MajorE  A chord diagramE MajorE  A chord diagramE MajorE  A chord diagramE MajorE  A chord diagramE MajorE  A chord diagramE MajorE  A chord diagramE MajorE  S
----0-----0-----0-----0----|----0-----0-----0-----0----|
--L----4-----2-----0-------|-------4-----2-----0-----2-|
-------------------------1-|--L------------------------|
---------------------------|---------------------------|
---------------------------|---------------------------|
---------------------------|---------------------------|


  S A chord diagramE MajorE  A chord diagramE MajorE  A chord diagramE MajorE  A chord diagramE MajorE  A chord diagramE MajorE  A chord diagramE MajorE  A chord diagramE MajorE  S    S A chord diagramE MajorE  A chord diagramE MajorE  A chord diagramE MajorE  A chord diagramE MajorE  A chord diagramE MajorE  A chord diagramE MajorE  A chord diagramE MajorE  S
----0-----0-----0-----0----|----0-----0-----0-----0----|
--L----4-----2-----0-------|-------4-----2-----0-----2-|
-------------------------2-|--L------------------------|
---------------------------|---------------------------|
---------------------------|---------------------------|
---------------------------|---------------------------|


  S A chord diagramE MajorE  A chord diagramE MajorE  A chord diagramE MajorE  A chord diagramE MajorE  A chord diagramE MajorE  A chord diagramE MajorE  A chord diagramE MajorE  S    S A chord diagramE MajorE  A chord diagramE MajorE  A chord diagramE MajorE  A chord diagramE MajorE  A chord diagramE MajorE  A chord diagramE MajorE  A chord diagramE MajorE  S
----0-----0-----0-----0----|----0-----0-----0-----0----|
--L----4-----2-----0-------|-------4-----2-----0-----2-|
-------------------------1-|--L------------------------|
---------------------------|---------------------------|
---------------------------|---------------------------|
---------------------------|---------------------------|


  S A chord diagramE MajorE  A chord diagramE MajorE  A chord diagramE MajorE  A chord diagramE MajorE  A chord diagramE MajorE  A chord diagramE MajorE  A chord diagramE MajorE  S    S A chord diagramE MajorE  A chord diagramE MajorE  A chord diagramE MajorE  A chord diagramE MajorE  A chord diagramE MajorE  A chord diagramE MajorE  A chord diagramE MajorE  S
----0-----0-----0-----0----|----0-----0-----0-----0----|
--L----4-----2-----0-------|-------4-----2-----0-----2-|
-------------------------2-|--L------------------------|
---------------------------|---------------------------|
---------------------------|---------------------------|
---------------------------|---------------------------|


  S A chord diagramE MajorE  A chord diagramE MajorE  A chord diagramE MajorE  A chord diagramE MajorE  A chord diagramE MajorE  A chord diagramE MajorE  A chord diagramE MajorE  S    S A chord diagramE MajorE  A chord diagramE MajorE  A chord diagramE MajorE  A chord diagramE MajorE  A chord diagramE MajorE  A chord diagramE MajorE  A chord diagramE MajorE  S
----0-----0-----0-----0----|----0-----0-----0-----0----|
--L----4-----2-----0-------|-------4-----2-----0-----2-|
-------------------------1-|--L------------------------|
---------------------------|---------------------------|
---------------------------|---------------------------|
---------------------------|---------------------------|


  S A chord diagramE MajorE  A chord diagramE MajorE  A chord diagramE MajorE  A chord diagramE MajorE  A chord diagramE MajorE  A chord diagramE MajorE  A chord diagramE MajorE  S    S A chord diagramE MajorE  A chord diagramE MajorE  A chord diagramE MajorE  A chord diagramE MajorE  A chord diagramE MajorE  A chord diagramE MajorE  A chord diagramE MajorE  S
----0-----0-----0-----0----|----0-----0-----0-----0----|
--L----4-----2-----0-------|-------4-----2-----0-----2-|
-------------------------2-|--L------------------------|
---------------------------|---------------------------|
---------------------------|---------------------------|
---------------------------|---------------------------|


  S A chord diagramE MajorE  A chord diagramE MajorE  A chord diagramE MajorE  A chord diagramE MajorE  A chord diagramE MajorE  A chord diagramE MajorE  A chord diagramE MajorE  S    S A chord diagramE MajorE  A chord diagramE MajorE  A chord diagramE MajorE  A chord diagramE MajorE  A chord diagramE MajorE  A chord diagramE MajorE  A chord diagramE MajorE  S
----0-----0-----0-----0----|----0-----0-----0-----0----|
--L----4-----2-----0-------|-------4-----2-----0-----2-|
-------------------------1-|--L------------------------|
---------------------------|---------------------------|
---------------------------|---------------------------|
---------------------------|---------------------------|


  S A chord diagramE MajorE  A chord diagramE MajorE  A chord diagramE MajorE  A chord diagramE MajorE  A chord diagramE MajorE  A chord diagramE MajorE  A chord diagramE MajorE  S    S A chord diagramE MajorE  A chord diagramE MajorE  A chord diagramE MajorE  A chord diagramE MajorE  A chord diagramE MajorE  A chord diagramE MajorE  A chord diagramE MajorE  S
----0-----0-----0-----0----|----0-----0-----0-----0----|
--L----4-----2-----0-------|-------4-----2-----0-----2-|
-------------------------2-|--L------------------------|
---------------------------|---------------------------|
---------------------------|---------------------------|
---------------------------|---------------------------|


  S A chord diagramE MajorE  A chord diagramE MajorE  A chord diagramE MajorE  A chord diagramE MajorE  A chord diagramE MajorE  A chord diagramE MajorE  A chord diagramE MajorE  S    S A chord diagramE MajorE  A chord diagramE MajorE  A chord diagramE MajorE  A chord diagramE MajorE  A chord diagramE MajorE  A chord diagramE MajorE  A chord diagramE MajorE  S
----0-----0-----0-----0----|----0-----0-----0-----0----|
--L----4-----2-----0-------|-------4-----2-----0-----2-|
-------------------------1-|--L------------------------|
---------------------------|---------------------------|
---------------------------|---------------------------|
---------------------------|---------------------------|


  S A chord diagramE MajorE  A chord diagramE MajorE  A chord diagramE MajorE  A chord diagramE MajorE  A chord diagramE MajorE  A chord diagramE MajorE  A chord diagramE MajorE  S    S A chord diagramE MajorE  A chord diagramE MajorE  A chord diagramE MajorE  A chord diagramE MajorE  A chord diagramE MajorE  A chord diagramE MajorE  A chord diagramE MajorE  S
----0-----0-----0-----0----|----0-----0-----0-----0----|
--L----4-----2-----0-------|-------4-----2-----0-----2-|
-------------------------2-|--L------------------------|
---------------------------|---------------------------|
---------------------------|---------------------------|
---------------------------|---------------------------|


  S A chord diagramE MajorE  A chord diagramE MajorE  A chord diagramE MajorE  A chord diagramE MajorE  A chord diagramE MajorE  A chord diagramE MajorE  A chord diagramE MajorE  S    S A chord diagramE MajorE  A chord diagramE MajorE  A chord diagramE MajorE  A chord diagramE MajorE  A chord diagramE MajorE  A chord diagramE MajorE  A chord diagramE MajorE  S
----0-----0-----0-----0----|----0-----0-----0-----0----||
--L----4-----2-----0-------|-------4-----2-----0-----2-||
-------------------------1-|--L------------------------||
---------------------------|---------------------------||
---------------------------|---------------------------||
---------------------------|---------------------------||



Duration 🏷Legend
---------------
W - whole
H - half
Q - quarter
A chord diagramE MajorE - 8th
S - 16th
T - 32nd
X - 64th
. - note dotted
|-n-|  - n-tuplets


Tablature 🏷Legend
----------------
L - tied note
x - dead note
g - grace note
(n) - ghost note
> - accentuded note
NH - natural harmonic
AH - artificial harmonic
TH - tapped harmonic
SH - semi harmonic
PH - pitch harmonic
h - hammer on
p - pull off
b - bend
br - bendRelease
pb - preBend
pbr - preBendRelease
brb - bendReleaseBend
n/ - tremolo bar dip
n - tremolo bar dive
-/n - tremolo bar Release up
/n - tremolo bar inverted dip
/n - tremolo bar return
-n - tremolo bar Release down
S - shift slide
s - legato slide
/ -  slide into from below or out of upwards
 -  slide into from above or out of downwards
~ - vibrato
W - wide vibrato
tr - trill
TP - tremolo picking
T - tapping
S - slap
P - pop
< - fade in
^ - brush up
v - brush down

Almost there ...

Sign in to get your own page with links to favourite songs and more. You are just one click away...

Login with Facebook Login with Google