Search tabs and chords

Browse bands and artists

A B C D E F G H I J K L M N O P Q R S T U V W X Y Z #

Log in

[ Register here | Forgot password ]

Guitar Tabs Explorer
Print

Close My Eyes tab by Pain

Guitar tabs with lyrics

  • Tuning: Standard
Band: Pain
Tabbed by: unspeakable.elvis@gmail.com


Legend:

.       palm mute
h       hammer on
p       pull off
/       slide up to note
\       slide down from note
x       dead note
~       vibrato


I'm just tabbed the riffs. Luckily the structure is not too complicated,
so you can figure out where everything goes.


Main Riff (repeat as many times as needed)
~~~~~~~~~

|---------------------------------|---------------------------------|
|---------------------------------|---------------------------------|
|-2---2---x-4-----5---5---x-9-----|-7---7---x-7---------3-------3---|
|-2---2---x-4-----5---5---x-9-----|-7---7---x-7---------3-------3---|
|-0---0---x-2-----3---3---x-7-----|-5---5---x-5-----0-0-1---0-0-1---|
|-0---0---x-2-----3---3---x-7-----|-5---5---x-5-----0-0-1---0-0-1---|
|-0---0---x-2-----3---3---x-7-----|-5---5---x-5-----0-0-1---0-0-1---|


|---------------------------------|---------------------------------|
|---------------------------------|---------------------------------|
|-2---2---x-4-----5---5---x-9-----|-7---7---x-7-------------3---3---|
|-2---2---x-4-----5---5---x-9-----|-7---7---x-7-----5---5---3---3---|
|-0---0---x-2-----3---3---x-7-----|-5---5---x-5-----5---5---1---1---|
|-0---0---x-2-----3---3---x-7-----|-5---5---x-5-----3---3---1---1---|
|-0---0---x-2-----3---3---x-7-----|-5---5---x-5-------------1---1---|



Verse Riff 1 (Play x2)
~~~~~~~~~~~~

 "Can't see faith through the tears..." etc.
|---------------------------------|---------------------------------|
|---------------------------------|---------------------------------|
|---------------------------------|---------------------------------|
|-7-------------------7-------7---|-7-------------------8-------8---|
|---0-0-0-0-0-0-0-0-0---0-0-0---0-|---0-0-0-0-0-0-0-0-0---0-0-0---0-|
|---------------------------------|---------------------------------|
|---------------------------------|---------------------------------|



|---------------------------------|---------------------------------|
|---------------------------------|---------------------------------|
|---------------------------------|---------------------------------|
|-7-------------------7-------7---|-7---------------5---5---8---8---|
|---0-0-0-0-0-0-0-0-0---0-0-0---0-|---0-0-0-0-0-0-0---0---0---0---0-|
|---------------------------------|---------------------------------|
|---------------------------------|---------------------------------|



Verse Riff 2
~~~~~~~~~~~~

 "How can we be so blind..."
|---------------------------------|---------------------------------|
|---------------------------------|---------------------------------|
|---------------------------------|---------------------------------|
|-5---5---5---5---5---5---5---5---|-5---5---5---5---5---5---5---5---|
|-5---5---5---5---5---5---5---5---|-5---5---5---5---5---5---5---5---|
|---------------------------------|---------------------------------|
|---------------------------------|---------------------------------|


 "Everytime..."
|---------------------------------|---------------------------------|
|---------------------------------|---------------------------------|
|---------------------------------|---------------------------------|
|-7---7---7---7---7---7---7---7---|-7---7---7---7---7---7---7---7---|
|-7---7---7---7---7---7---7---7---|-7---7---7---7---7---7---7---7---|
|---------------------------------|---------------------------------|
|---------------------------------|---------------------------------|

 "People are starving..."
|---------------------------------|---------------------------------|
|---------------------------------|---------------------------------|
|---------------------------------|---------------------------------|
|-5---5---5---5---5---5---5---5---|-5---5---5---5---5---5---5---5---|
|-5---5---5---5---5---5---5---5---|-5---5---5---5---5---5---5---5---|
|---------------------------------|---------------------------------|
|---------------------------------|---------------------------------|


 "The bombs are dropping..."
|---------------------------------|---------------------------------|
|---------------------------------|---------------------------------|
|---------------------------------|---------------------------------|
|-7---7---7---7---7---7---7---7---|-8---8---8---8---8-8-8-8-8-8-8-8-|
|-7---7---7---7---7---7---7---7---|-8---8---8---8---8-8-8-8-8-8-8-8-|
|---------------------------------|-6---6---6---6---6-6-6-6-6-6-6-6-|
|---------------------------------|---------------------------------|



"CNN Report" Part
~~~~~~~~~~~~~~~~~

|---------------------------------|---------------------------------|
|---------------------------------|---------------------------------|
|---------------------------------|---------------------------------|
|---------------------------------|---------------------------------|
|---------------------------------|---------------------------------|
|-----------3~~~------------------|---------------------------------|
|-0---0---0-------0---0---0-8~~~--|-0---0---0-7~~~--0---0---1-1-1-1-|



|---------------------------------|---------------------------------|
|---------------------------------|---------------------------------|
|---------------------------------|---------------------------------|
|---------------------------------|---------------------------------|
|---------------------------------|---------------------1-1-1-1-1-1-|
|-----------3~~~------------------|---------------------1-1-1-1-1-1-|
|-0---0---0-------0---0---0-8~~~--|-0---0---0-7~~~--0---1-1-1-1-1-1-|
                                                        . . . . . .


|---------------------------------|---------------------------------|  \
|---------------------------------|---------------------------------|  |
|---------------------------10----|-----------9---------------------|  |
|-----------5---------------10----|-----------9-----2---2---3-3-3-3-|  |
|-0---0---0-5-----0---0---0-8-----|-0---0---0-7-----0---0---1-1-1-1-|  |
|-0---0---0-3-----0---0---0-8-----|-0---0---0-7-----0---0---1-1-1-1-|  |
|-0---0---0-------0---0---0-8-----|-0---0---0-7-----0---0---1-1-1-1-|  |
                                                                       |
                                                                        > Play x2
                                                                       |
|---------------------------------|---------------------------------|  |
|---------------------------------|---------------------------------|  |
|---------------------------10----|-----------9---------------------|  |
|-----------5---------------10----|-----------9---------3-3-3-3-3-3-|  |
|-0---0---0-5-----0---0---0-8-----|-0---0---0-7-----0-0-1-1-1-1-1-1-|  |
|-0---0---0-3-----0---0---0-8-----|-0---0---0-7-----0-0-1-1-1-1-1-1-|  |
|-0---0---0-------0---0---0-8-----|-0---0---0-7-----0-0-1-1-1-1-1-1-|  /
                                                        . . . . . .

Back to Main Riff until end.

Comments