Log in

One click and you are in

Login with Facebook Login with Google

Why sign up and log in

Guitar Tabs Explorer
Michel Pagliaro bass tabs for Lovin you aint easy

Lovin You Ain't Easy bass tab - Michel Pagliaro

Michel Pagliaro bass tabs for Lovin you aint easy

Bass tabs

Tuning: Standard (E A D G)


Tuning: 1/4 step up

0:08

G|----------------------------------------------------------------|
D|----------------------------------------------------------------|
A|3---------------------------------------------------------------|
E|----------------------------------------------------------------|

G|----------------------------------------------------------------|
D|----------------------------------------------------------------|
A|5---------------------------------------------------------------|
E|----------------------------------------------------------------|

G|----------------------------------------------------------------|
D|----------------------------------------------------------------|
A|----------------------------------------------------------------|
E|1---------------------------------------------------------------|

G|----------------------------------------------------------------|
D|----------------------------------------------------------------|
A|3---------------------------------------------------------------|
E|----------------------------------------------------------------|

0:23

G|----------------------------------------------------------------|.
D|------------2-------5---7-------------------2-------5---7-------|.
A|3-------------------------------3-------------------------------|.
E|----------------------------------------------------------------|.
                                  .
G|----------------------------------------------------------------|.
D|------------3-------5---7-------------------3-------5---7-------|.
A|5-------------------------------5-------------------------------|.
E|----------------------------------------------------------------|.
                                  .
G|----------------------------------------------------------------|.
D|3-----------------------3---2---3-----------------------3-------|. x2
A|------------0-------3-----------------------0-------3-----------|.
E|----------------------------------------------------------------|.
                                  .
G|----------------------------------------------------------------|.
D|------------2-------5-----------------------3-------2---3-------|.
A|3-----------------------3---2---1-------------------------------|.
E|----------------------------------------------------------------|.
                                  .
G|----------------------------------------------------------------|.
D|------------2-------5-----------------------3-------2---3-------|.
A|3-----------------------3---2---1-------------------------------|.
E|----------------------------------------------------------------|.

1:02

G|----------------------------------------------------------------|
D|5-------5-------5-------5-------5---5---------------------------|
A|----------------------------------------0---0---1---1---2---2---|
E|----------------------------------------------------------------|

G|----------------------------------------------------------------|
D|--------------------------------2-----------------------2-------|
A|3-------------------0---3-------------------2-------0-----------|
E|------------3---------------------------------------------------|

G|----------------------------------------------------------------|
D|7-----------5-------7---5-------------------4-------7-----------|
A|--------------------------------5-----------------------5---4---|
E|----------------------------------------------------------------|

G|----------------------------------------------------------------|
D|------------2-------5-----------------------3-------2---3-------|
A|3-----------------------3-------5-------------------------------|
E|----------------------------------------------------------------|

G|----------------------------------------------------------------|
D|------------2-------5-----------------------3-------2---3-------|
A|3-----------------------3---2---1-------------------------------|
E|----------------------------------------------------------------|

1:21

G|----------------------------------------------------------------|
D|------------2-------5---7-------------------2-------5---7-------|
A|3-------------------------------3-------------------------------|
E|----------------------------------------------------------------|

G|----------------------------------------------------------------|
D|------------3-------5---7-------------------3-------5---7-------|
A|5-------------------------------5-------------------------------|
E|----------------------------------------------------------------|

G|----------------------------------------------------------------|
D|3-----------------------3---2---3-----------------------3-------|
A|------------0-------3-----------------------0-------3-----------|
E|----------------------------------------------------------------|

G|----------------------------------------------------------------|
D|------------2-------5---7-------------------7-------5---2---5---|
A|3--------------------------------3------------------------------|
E|----------------------------------------------------------------|

1:36

G|----------------------------------------------------------------|
D|------------2-------5---7-------------------2-------5---7-------|
A|3-------------------------------3-------------------------------|
E|----------------------------------------------------------------|

G|----------------------------------------------------------------|
D|------------3-------5---7-------------------3-------5---7-------|
A|5-------------------------------5-------------------------------|
E|----------------------------------------------------------------|

G|----------------------------------------------------------------|
D|3-----------------------3---2---3-----------------------3-------|
A|------------0-------3-----------------------0-------3-----------|
E|----------------------------------------------------------------|

G|----------------------------------------------------------------|
D|------------2-------5-----------------------3-------2---3-------|
A|3-----------------------3---2---1-------------------------------|
E|----------------------------------------------------------------|

G|----------------------------------------------------------------|
D|------------2-------5-----------------------3-------2---3-------|
A|3-----------------------3-------1-------------------------------|
E|----------------------------------------------------------------|

1:56

G|----------------------------------------------------------------|
D|----------------------------------------------------------------|
A|5-------5-------5-------5---------------0---0---1---1---2---2---|
E|--------------------------------3---3---------------------------|

G|----------------------------------------------------------------|
D|--------------------------------2-----------------------2---/---|
A|3-------------------0---3-------------------2-------5-----------|
E|------------3---------------------------------------------------|

G|----------------------------------------------------------------|
D|7-------------------7---5-------------------4-------7-----------|
A|------------7-------------------5-----------------------5---\---|
E|----------------------------------------------------------------|

G|----------------------------------------------------------------|
D|------------2-------5-----------------------3-------2---3-------|
A|3-----------------------3-------5-------------------------------|
E|----------------------------------------------------------------|

2:11

G|----------------------------------------------------------------|
D|------------2-------5-----------------------3-------2---3-------| x2
A|3-----------------------3---2---1-------------------------------|
E|----------------------------------------------------------------|

G|----------------------------------------------------------------|
D|------------2-------5-----------------------3-------2---3-------|
A|3-----------------------3---4---5-------------------------------|
E|----------------------------------------------------------------|

G|----------------------------------------------------------------|
D|------------2-------5-----------------------3-------2---3-------|
A|3-----------------------3---2---1-------------------------------|
E|----------------------------------------------------------------|

2:27 Until fadeout.

G|----------------------------------------------------------------|
D|------------2-------5-----------------------3-------2---3-------|
A|3-----------------------3---4---5-------------------------------|
E|----------------------------------------------------------------|

G|----------------------------------------------------------------|
D|------------2-------5-----------------------3-------2---3-------|
A|3-----------------------3---2---1-------------------------------|
E|----------------------------------------------------------------|

Almost there ...

Sign in to get your own page with links to favourite songs and more. You are just one click away...

Login with Facebook Login with Google