Log in

One click and you are in

Login with Facebook Login with Google

Why sign up and log in

Guitar Tabs Explorer
Page France chords for Finders

Guitar chords with lyrics

Album: Hello, Dear Wind


Guitar 1

A chord diagramC majorC                A chord diagramFF           A chord diagramG+G   x16  End on
1 & 2 & 3 & 4 &  1 & 2 & 3 & 4 &       1 & 2 & 3 & 4 &
-0-------0------|----0-----------|     ----------------|
-1--1----1--1---|---1--1--1---3--|     ----------------|
------0-------0-|-2-----2---2----|     -0--------------|
---2---2---2---2|-------------0--|     ----------------|
-3-------3------|-3-------3------|     ----------------|
----------------|----------------|     -3--------------|

I x2

I

                            I

I'll shed a feather for the Lord
                                 I

And I'll blow the trumpet on the shore
                              I

Just like the birds do in the morn

                             I
I'll be a savior and I'll be your poor

I

I

                           I
You'll be a diamond in the sand

                                 I
And all of the finders will clap their hands
                          I

Glory abounds us we found dry land

                                   I
And all of us finders will clap our hands
                                   I

And all of us finders will clap our hands
                                   I

And all of us finders will clap our hands

I

--------------------------------------------------------------------
Guitar 2

                                  (Enter guitar 1)
1 & 2 & 3 & 4 &  1 & 2 & 3 & 4 &  1 & 2 & 3 & 4 &  1 & 2 & 3 & 4 &
3---------------|----------------|----------------|----------------|
----------------|----------------|----------------|----------------|
----------------|----------------|----------------|----------------|
----------------|----------------|----------------|----------------|
----------------|----------------|----------------|----------------|
----------------|----------------|----------------|----------------|
                                             I ll shed. . .

1 & 2 & 3 & 4 &  1 & 2 & 3 & 4 &  1 & 2 & 3 & 4 &  1 & 2 & 3 & 4 &
8---------------|----------------|3---------------|----------------|
----------------|----------------|----------------|----------------|
----------------|----------------|----------------|----------------|
----------------|----------------|----------------|----------------|
----------------|----------------|----------------|----------------|
----------------|----------------|----------------|----------------|
Lord                              shore

1 & 2 & 3 & 4 &  1 & 2 & 3 & 4 &  1 & 2 & 3 & 4 &  1 & 2 & 3 & 4 &
8-----------10--|12--------------|8-----------10--|12--------------|
----------------|----------------|----------------|----------------|
----------------|----------------|----------------|----------------|
----------------|----------------|----------------|----------------|
----------------|----------------|----------------|----------------|
----------------|----------------|----------------|----------------|
morn                              your poor

1 & 2 & 3 & 4 &  1 & 2 & 3 & 4 &  1 & 2 & 3 & 4 &  1 & 2 & 3 & 4 &
3---------------|----------------|12--------------|8-----------10--|
----------------|----------------|----------------|----------------|
----------------|----------------|----------------|----------------|
----------------|----------------|----------------|----------------|
----------------|----------------|----------------|----------------|
----------------|----------------|----------------|----------------|

1 & 2 & 3 & 4 &  1 & 2 & 3 & 4 &  1 & 2 & 3 & 4 &  1 & 2 & 3 & 4 &
3---------------|----------------|8-----------10--|12--------------|
----------------|----------------|----------------|----------------|
----------------|----------------|----------------|----------------|
----------------|----------------|----------------|----------------|
----------------|----------------|----------------|----------------|
----------------|----------------|----------------|----------------|
sand                              their hands

1 & 2 & 3 & 4 &  1 & 2 & 3 & 4 &  1 & 2 & 3 & 4 &  1 & 2 & 3 & 4 &
3---------------|----------------|8-----------10--|12--------------|
----------------|----------------|----------------|----------------|
----------------|----------------|----------------|----------------|
----------------|----------------|----------------|----------------|
----------------|----------------|----------------|----------------|
----------------|----------------|----------------|----------------|
dry land                          hands

1 & 2 & 3 & 4 &  1 & 2 & 3 & 4 &  1 & 2 & 3 & 4 &  1 & 2 & 3 & 4 &
12----------10--|8---------------|3---------------|------------8---|
----------------|----------------|----------------|----------------|
----------------|----------------|----------------|----------------|
----------------|----------------|----------------|----------------|
----------------|----------------|----------------|----------------|
----------------|----------------|----------------|----------------|
hands                             hands

1 & 2 & 3 & 4 &  1 & 2 & 3 & 4 &  1 & 2 & 3 & 4 &  1 & 2 & 3 & 4 &
10--------------|12----------8---|3-----------5---|8---------------|
----------------|----------------|----------------|----------------|
----------------|----------------|----------------|----------------|
----------------|----------------|----------------|----------------|
----------------|----------------|----------------|----------------|
----------------|----------------|----------------|----------------|

1 & 2 & 3 & 4 &  1 & 2 & 3 & 4 &  1 & 2 & 3 & 4 &  1 & 2 & 3 & 4 &
3-----------5---|8---------------|----------------|----------------|
----------------|----------------|----------------|----------------|
----------------|----------------|----------------|----------------|
----------------|----------------|----------------|----------------|
----------------|----------------|----------------|----------------|
----------------|----------------|----------------|----------------|

Almost there ...

Sign in to get your own page with links to favourite songs and more. You are just one click away...

Login with Facebook Login with Google