Log in

One click and you are in

Login with Facebook Login with Google

Why sign up and log in

Guitar Tabs Explorer
Pagans Mind bass tabs for Walk away in silence

Bass tabs

Bass
   E E E E E E E E  8x  E E E E E E E E  4x
C||----------------------------||----------------------------||
G||----------------------------||----------------------------||
D||*--7--7--7--7--7--7--7--7--*||*--------------------------*||
A||*--------------------------*||*--0--0--0--0--0--0--0--0--*||
E||----------------------------||----------------------------||
B||----------------------------||----------------------------||
 E E E E E E E E   E E E E E E E E
--------------------------|--------------------------|
--------------------------|--------------------------|
--------------------------|--------------------------|
--0--0--0--0--0--0--0-----|--------------------------|
-----------------------3--|--L--3--3--3--3--3--3--0--|
--------------------------|--------------------------|


 E E E E E E E E   E E E E E E E E
--------------------------|--------------------------|
--------------------------|--------------------------|
--------------------------|--------------------------|
--------------------------|--------------------------|
--L--0--0--0--0--0--0-----|-----------------0--3--0--|
-----------------------3--|--L--3--3--3--3-----------|


 E E E E E E E E   E E E E E E E E
--------------------------|--------------------------|
--------------------------|--------------------------|
--------------------------|--------------------------|
--0--0--0--0--0--0--0--0--|--0--0--0--0--0--0--0--0--|
--------------------------|--------------------------|
--------------------------|--------------------------|

 E E E E E E E E   E E E E E E E E
--------------------------|--------------------------|
--------------------------|--------------------------|
--------------------------|--------------------------|
--0--0--0--0--0--0--0--0--|--0--0--0--0--0-----------|
--------------------------|-----------------0--3--0--|
--------------------------|--------------------------|


 E E E E E E E E   E E E E E E E E
--------------------------|--------------------------|
--------------------------|--------------------------|
--------------------------|--------------------------|
--0--0--0--0--0--0--0--0--|--0--0--0--0--0--0--0-----|
--------------------------|-----------------------3--|
--------------------------|--------------------------|


 E E E E E E E E   E E E E E E  Q
--------------------------|----------------------------|
--------------------------|----------------------------|
--------------------------|----------------------------|
--------------------------|----------------------------|
--L--3--3--3--3--5--3--2--|--L--2--2--2--2--2s--14\----|
--------------------------|----------------------------|


 E E E E E E E E   E E E E E E E E
--------------------------|--------------------------|
--------------------------|--------------------------|
--------------------------|--------------------------|
--0--0--0--0--0--0--0--0--|--0--0--0--0--0--0--0--0--|
--------------------------|--------------------------|
--------------------------|--------------------------|


 E E E E E E E E   E E E E E E E E
--------------------------|--------------------------|
--------------------------|--------------------------|
--------------------------|--------------------------|
--0--0--0--0--0--0--0--0--|--0-----0--5--3--2--0-----|
--------------------------|-----3-----------------3--|
--------------------------|--------------------------|


 E E E E E E E E   E E E E E E E E
--------------------------|--------------------------|
--------------------------|--------------------------|
--------------------------|--------------------------|
--0--0--0--0--0-----------|--------------------------|
-----------------0--2--3--|--L--3--3--3--3--3--3--0--|
--------------------------|--------------------------|


 E E E E E E E E   W                    4x
--------------------------|-------------------||---------------------||
--------------------------|-------------------||---------------------||
--------------------------|-------------------||*-------------------*||
--------------------------|-------------------||*-------------------*||
--L--0--0--0--0--0--3--0--|-------------------||---------------------||
--------------------------|--3----------------||---------------------||


 Q   H    E E   Q.   Q  Q  E   Q   H.
-----------------------|----------------------|---------------------|
-----------------------|----------------------|---------------------|
-----------------------|----------------------|---------------------|
--------------------5--|--L-------------------|---------------------|
-----------------------|---------5----0-------|---------------------|
--7\-------------------|-------------------7--|--7\-----------------|


                 4x H.      E E
---------------||-----------------||----------------------|
---------------||-----------------||----------------------|
---------------||*---------------*||----------------------|
---------------||*---------------*||-------------------5--|
---------------||-----------------||----------------------|
---------------||-----------------||--7\------------------|


 Q.   Q  Q  E   E E H.
----------------------|---------------------|---------------|
----------------------|---------------------|---------------|
----------------------|---------------------|---------------|
--L-------------------|---------------------|---------------|
---------5----0----2--|--2--2---------------|---------------|
----------------------|---------------------|---------------|


  E E E E E E E E   E E E E E E E E
|---------------------------|--------------------------|
|---------------------------|--------------------------|
|*--------------------------|--------------------------|
|*--------------------------|--------------------------|
|---1--1--1--1--1--1--1--1--|--1--1--1--1--1--1--1--1--|
|---------------------------|--------------------------|


 E E E E E E E E   E E E E E E E E
--------------------------|---------------------------||
--------------------------|---------------------------||
--------------------------|--------------------------*||
--------------------------|--------------------------*||
--5--5--5--5--5--5--5--5--|--5--5--5--5--5--5--5--0---||
--------------------------|---------------------------||


 E E E E E E E E   E E E E E E E E
--------------------------|--------------------------|
--------------------------|--------------------------|
--------------------------|--------------------------|
--3--3--3--3--3--3--3--3--|--0--0--0--0--0--0--0--0--|
--------------------------|--------------------------|
--------------------------|--------------------------|


 E E E E E E E E   E E E E E E E E
--------------------------|--------------------------|
--------------------------|--------------------------|
--------------------------|--------------------------|
--0--0--0--0--0--0--0--0--|--0--0--0--0--0--0--0--0--|
--------------------------|--------------------------|
--------------------------|--------------------------|


 E E E E E E E E   E E E E E E E E
--------------------------|--------------------------|
--------------------------|--------------------------|
--------------------------|--------------------------|
--0--0--0--0--0-----------|--0--0--0--0--0--0--0--0--|
-----------------0--3--0--|--------------------------|
--------------------------|--------------------------|


 E E E E E E E E   E E E E E E E E
--------------------------|--------------------------|
--------------------------|--------------------------|
--------------------------|--------------------------|
--0--0--0--0--0--0--0-----|-----------------0--3--5--|
-----------------------3--|--L--3--3--3--3-----------|
--------------------------|--------------------------|


 E E E S S E E E E   E E E E E E E E
---------------------------|--------------------------|
---------------------------|--------------------------|
---------------5-----------|--------------------------|
--L--5--5--5-7----7--5--3--|--0--0--0--0--0--------0--|
---------------------------|-----------------0--3-----|
---------------------------|--------------------------|


 E E E E E E E E   E E E E E E E E
--------------------------|--------------------------|
--------------------------|--------------------------|
--------------------------|--------------------------|
--L--0--0--0--0--0--0--0--|--0--0--0--0--0--0--0--0--|
--------------------------|--------------------------|
--------------------------|--------------------------|


 E E E E E E E E   E E E E E E E E
--------------------------|--------------------------|
--------------------------|--------------------------|
--------------------------|--------------------------|
--0-----0--5--3--2--0-----|--0--0--0--0--0-----------|
-----3-----------------3--|-----------------0--2--3--|
--------------------------|--------------------------|


 E E E E E E E E   E E E E E E E E   W
--------------------------|--------------------------|-------------------|
--------------------------|--------------------------|-------------------|
--------------------------|--------------------------|-------------------|
--------------------------|--------------------------|-------------------|
--L--3--3--3--3--3--2--0--|--L--0--0--0--0--0--3--5--|-------------------|
--------------------------|--------------------------|--3----------------|


  E E E E E E E E  4x E E E E E E E E
|----------------------------||--------------------------|
|----------------------------||--------------------------|
|*--------------------------*||--------------------------|
|*--------------------------*||--------------------0--5--|
|---2--0--2-----2-----2--0---||--2--0--2-----2--4--------|
|----------------------------||--------------------------|


 Q.   Q  Q  E   W           Q.   Q  Q  E
----------------------|--------------------|------------------------|
----------------------|--------------------|------------------------|
----------------------|--------------------|------------------------|
--L-------------------|--------------------|------------------------|
---------5----0----2--|--2S----------------|--12S------0----0----2--|
----------------------|--------------------|------------------------|


  E E E E E E E E  4x E E E E E E E E
|----------------------------||--------------------------|
|----------------------------||--------------------------|
|*--------------------------*||--------------------------|
|*--------------------------*||--------------------0--5--|
|---2--0--2-----2-----2--0---||--2--0--2-----2--4--------|
|----------------------------||--------------------------|


 E E E Q  E E E   E E E E E E E E   E E E Q  E E E
-------------------------|--------------------------|-------------------------|
-------------------------|--------------------------|-------------------------|
----------------2--------|--------------------------|-------------------------|
--L--7--5--4-------4-----|--------------------0--5--|--L--5--5--5----5--5--5--|
----------------------0--|--2--0--2-----2--4--------|-------------------------|
-------------------------|--------------------------|-------------------------|


 E E E E E E E E   E E E E E E E E
--------------------------|--------------------------|
--------------------------|--------------------------|
--------------------------|--------------------------|
--------------------------|--------------------------|
--1--1--1--1--1--1--1--1--|--1--1--1--1--1--1--1--1--|
--------------------------|--------------------------|


 E E E E E E E E   E E E E E E E E
--------------------------|--------------------------|
--------------------------|--------------------------|
--------------------------|--------------------------|
--------------------------|--------------------------|
--5--5--5--5--5--5--5--5--|--5--8--7--5--3--2--3--0--|
--------------------------|--------------------------|


 E E E E E E E E   E E E E E E E E
--------------------------|--------------------------|
--------------------------|--------------------------|
--------------------------|--------------------------|
--------------------------|--------------------------|
--1--1--1--1--1--1--1--1--|--1--1--1--1--1--1--1--1--|
--------------------------|--------------------------|


 E E E E E E E E   E E E E E E E E
--------------------------|--------------------------|
--------------------------|--------------------------|
--------------------------|--------------------------|
--------------------------|-----------3--3--3--3--3--|
--0--0--0--0--0--0--0--0--|--0--0--0-----------------|
--------------------------|--------------------------|


  E E E  E E E E  E  4x E E E E E E E E
|------------------------------||--------------------------|
|------------------------------||--------------------------|
|*--------5h--7--------5h--7--*||--------------------------|
|*--0--0---------0--0---------*||--0--0--0--0--0--0--3--0--|
|------------------------------||--------------------------|
|------------------------------||--------------------------|


 E E E E E E E E   E E E E E E E E   W
--------------------------|--------------------------|-------------------|
--------------------------|--------------------------|-------------------|
--------------------------|--------------------------|-------------------|
--------------------------|--------------------------|-------------------|
--3--3--3--3--3--3--5--3--|--L--0--0--0--0--0--3--5--|-------------------|
--------------------------|--------------------------|--3----------------|


 E E E E E E E E   E E E E E E E E
--------------------------|--------------------------|
--------------------------|--------------------------|
--------------------------|--------------------------|
--------------------------|--------------------------|
--0--0--0--0--0--0--0--0--|--1--1--1--1--1--1--1--1--|
--------------------------|--------------------------|


 E E E E E E E E   E E E E E E E E
--------------------------|--------------------------|
--------------------------|--------------------------|
--------------------------|--------------------------|
--------------------------|--------------------------|
--3--3--3--3--3--3--3--3--|--2--2--2--2--2--2--2--2--|
--------------------------|--------------------------|


 E E E E E E E E   E E E E E E E E
--------------------------|--------------------------|
--------------------------|--------------------------|
--------------------------|--------------------------|
--------------------------|--------------------------|
--0--0--0--0--0--0--0--0--|--------------------------|
--------------------------|--3--3--3--3--3--3--3--3--|


 E E E E E E E E   E E E E E E E E
--------------------------|--------------------------|
--------------------------|--------------------------|
--------------------------|--------------------------|
--------------------------|--------------------------|
--------------------------|--------------------------|
--1--1--1--1--1--1--1--1--|--0--0--0--0--0--0--0--0--|


 E E E E E E E E   E E E E E E E E
--------------------------|--------------------------|
--------------------------|--------------------------|
--------------------------|--------------------------|
--------------------------|--------------------------|
--4--4--4--4--4--4--4--4--|--0--0--0--0--0--0--0--0--|
--------------------------|--------------------------|


 E E E E E E E E   E E E E E E E E
--------------------------|--------------------------|
--------------------------|--------------------------|
--------------------------|--------------------------|
--------------------0--2--|--4--4--4--4--4--6--4--2--|
--2--2--2--2--2--4--------|--------------------------|
--------------------------|--------------------------|


 E E E E E E E E   E E E E E E E E
--------------------------|--------------------------|
--------------------------|--------------------------|
--------------------------|--------------------------|
--------------------------|--------------------------|
--4--4--4--4--4--4--4--4--|--0--0--0--0--0--0--0--0--|
--------------------------|--------------------------|


 E E E E E E E E   E E E E  E  E  E  E
--------------------------|--------------------------------|
--------------------------|--------------------------------|
--------------------------|--------------------------------|
--------------------------|--------------------------------|
--2--2--2--2--2--2--2--2--|--0--0--0--0S--11--11--11--11\--|
--------------------------|--------------------------------|


 E E E E E E E E   E E E E E E E E
--------------------------|--------------------------|
--------------------------|--------------------------|
--------------------------|--------------------------|
--4--4--4--4--4--4--2--2--|--0--0--0--0--0--0--2--4--|
--------------------------|--------------------------|
--------------------------|--------------------------|


 E E E E E E E E   E E E E E E E E
--------------------------|--------------------------|
--------------------------|--------------------------|
--------------2--1--------|--------------------------|
--2--2--2--2--------4--2--|--------------------1--2--|
--------------------------|--2--2--2--2--2--4--------|
--------------------------|--------------------------|


 E E E E E E E E   E E E E E E E E
--------------------------|--------------------------|
--------------------------|--------------------------|
--------------------------|--------------------------|
--4--4--4--4--4--4--2--2--|--0--0--0--0--0--0--0--0--|
--------------------------|--------------------------|
--------------------------|--------------------------|


 E E E E E E E E    E  E  E  E  E  E  E  E
---------------------------|----------------------------------|
---------------------------|----------------------------------|
---------------------------|----------------------------------|
--2--2--2--2--2--2--2--2S--|--14--14--14--14--14--14--14--14--|
---------------------------|----------------------------------|
---------------------------|----------------------------------|


 E E E E E E E E   E E E E E E E E
--------------------------|--------------------------|
--------------------------|--------------------------|
--------------------------|--------------------------|
--------------------------|--------------------------|
--1--1--1--1--1--1--1--1--|--1--1--1--1--3--3--3--3--|
--------------------------|--------------------------|


 E E E E E E E E   E E E E E E E E
--------------------------|--------------------------|
--------------------------|--------------------------|
--------------------------|--------------------------|
--------------------------|--------------------------|
--1--1--1--1--1--1--1--1--|--1--1--1--1--3--3--3--3--|
--------------------------|--------------------------|


 E E E E E E E E   E E E E E E E E
--------------------------|--------------------------|
--------------------------|--------------------------|
--------------------------|--------------------------|
--------------------------|--------------------------|
--------------------------|--------------------------|
--3--3--3--3--3--3--3--3--|--3--3--3--3--3--3--3--3--|


 E E E E E E E E   E E E E E E E E
--------------------------|--------------------------|
--------------------------|--------------------------|
--------------------------|--------------------------|
--------------------------|-----3-----3--------------|
--0--0--0--0--0--0--0--0--|--0--------------3-----5--|
--------------------------|--------------------------|


 E E E E E E E E   E E E E E E E E
--------------------------|--------------------------|
--------------------------|--------------------------|
--------------------------|--------------------------|
--0--0--0--0--0--0--0--0--|--0--0--0--0--0--0--0--0--|
--------------------------|--------------------------|
--------------------------|--------------------------|


 E E E E E E E E    E  E  E  E  E  E  E  E
---------------------------|----------------------------------|
---------------------------|----------------------------------|
---------------------------|----------------------------------|
--0--0--0--0--0--0--0--0S--|--12--12--12--12--12--12--12--12--|
---------------------------|----------------------------------|
---------------------------|----------------------------------|


 E E E  E E E E  E   E E E  E E E E E
----------------------------|---------------------------|
----------------------------|---------------------------|
--------5h--7--------5h--7--|--------5h--7--------------|
--0--0---------0--0---------|--0--0---------0--0--0-----|
----------------------------|------------------------3--|
----------------------------|---------------------------|


 E E E E E E E E   E E E S S E E E E
--------------------------|---------------------------|
--------------------------|---------------------------|
--------------------------|---------------5-----------|
--------------------0--3--|--L--5--5--5-7----7--5--3--|
--3--3--3--3--3--3--------|---------------------------|
--------------------------|---------------------------|


 E E E E E E E E   E E  E  E  E E E E
--------------------------|------------------------------|
--------------------------|------------------------------|
--------------------------|------------------------------|
--0--0--0--0--0--------0--|--L--0S--12--12S--0--------0--|
-----------------0--3-----|---------------------0--3-----|
--------------------------|------------------------------|


 E E  E  E  E E E E   E E E E E E E E
------------------------------|--------------------------|
------------------------------|--------------------------|
------------------------------|--------------------------|
--L--0S--12--12S--0--------0--|--L-----0--5--3--2--0-----|
---------------------0--3-----|-----3-----------------3--|
------------------------------|--------------------------|


 E E E E E E E E   E E E E E E E E
--------------------------|--------------------------|
--------------------------|--------------------------|
--------------------------|--------------------------|
--0--0--0--0--0-----------|--------------------------|
-----------------0--2--3--|--L--3--3--3--3--3--2--0--|
--------------------------|--------------------------|


 E E E E E E E E   E  E  Q  E  Q   E
--------------------------|------------------------------|
--------------------------|----------10----9-------------|
--------------------------|-----/10-----------10~--------|
--------------------------|--------------------------12--|
--L--0--0--0--0--3--0-----|------------------------------|
-----------------------3--|------------------------------|


 H     H
---------------------||
---------------------||
---------------------||
--L\-----------------||
---------------------||
---------------------||

Almost there ...

Sign in to get your own page with links to favourite songs and more. You are just one click away...

Login with Facebook Login with Google