Log in

One click and you are in

Login with Facebook Login with Google

Why sign up and log in

Guitar Tabs Explorer
Pagans Mind bass tabs for Through osiris eyes

Bass tabs with lyrics

Through Osiris' Eyes

               Pagan's Mind


(1.24) Intro
   E Q.   Q.   S S  E Q.   S S S S S S S S  E Q.   H
C||-----------------------|----------------------------|---------------------|
G||-----------------------|----------------------------|---------------------|
D||-----------------------|----------------------------|---------------------|
A||-----------------------|----------------------------|---------------------|
E||-----------------------|----------------------------|---------------------|
B||--3------------------3-|--3-----------3---3---3---3-|--3------------------|

 S T T S S S S S S S T T S S E E   S S S S S S S S S S S S S S S S
------------------------------------|----------------------------------|
------------------------------------|----------------------------------|
------------------------------------|----------------------------------|
--5-6-5-4---4-----------------------|----------------------------------|
----------6---6-5-3-2-2-3-2---------|--0-0-0-0-0-0-0-0-0-0-0-0-0-0-0-0-|
----------------------------4-3-----|----------------------------------|


 S S S S S S S S S S E  E S S  S S S S S S S S S S S S S S S S
----------------------------------|----------------------------------|
----------------------------------|----------------------------------|
----------------------------------|----------------------------------|
----------------------12--11--8-7-|----------------------------------|
--0-0-0-0-0-0-0-0-0-0-------------|--0-0-0-0-0-0-0-0-0-0-0-0-0-0-0-0-|
----------------------------------|----------------------------------|

 S S S S S S S S S S S S S S S S  S S S S S S S S S S S S S S S S
----------------------------------|----------------------------------|
----------------------------------|----------------------------------|
----9-----8-----7-----6-----------|----------------------------------|
--7---7-6---6-5---5-4---4-3-2-1-0-|----------------------------------|
----------------------------------|----------------------------------|
----------------------------------|--3-3-3-3-3-3-3-3-3-3-3-3-3-3-3-3-|


 S S S S S S S S S S E E S S  S S S S S S S S S S S S S S S S
--------------------------------|----------------------------------|
--------------------------------|----------------------------------|
--------------------------------|----------------------------------|
--------------------------------|----------------------------------|
----------------------3--2------|----------------------------------|
--3-3-3-3-3-3-3-3-3-3-------4-3-|--L-3-3-3-3-3-3-3-3-3-3-3-3-3-3-3-|


 S S S T T S S S S S S S S S S S S  S S S S S S S S S S S S S S S S
------------------------------------|----------------------------------|
------------------------------------|----------------------------------|
------4-4-5-4-----------4-5-7-5-8-7-|----------------------------------|
--5-6---------6-5-3-5-6-------------|----------------------------------|
------------------------------------|--0-0-0-0-0-0-0-0-0-0-0-0-0-0-0-0-|
------------------------------------|----------------------------------|


 S S S S S S S S S S E  E S S  S S S S S S S S S S S S S S S S
----------------------------------|----------------------------------|
----------------------------------|----------------------------------|
----------------------------------|----------------------------------|
----------------------12--11--8-7-|----------------------------------|
--0-0-0-0-0-0-0-0-0-0-------------|--0-0-0-0-0-0-0-0-0-0-0-0-0-0-0-0-|
----------------------------------|----------------------------------|

                  (2.04) Awyeah


 S S S S S S S S S S S S S S S S  E. E. E H
----------------------------------|----------------------|
----------------------------------|----------------------|
----9-----8-----7-----6-----------|----------------------|
--7---7-6---6-5---5-4---4-3-2-1-0-|----------------------|
----------------------------------|----------------------|
----------------------------------|--3---3---3--L--------|


 E. E. E H      E. E. E H      H    H
----------------------|----------------------|--------------------|
----------------------|----------------------|--------------------|
----------------------|----------------------|--------------------|
----------------------|------5---------------|--------------------|
----------------------|----------------------|--3--------1--------|
--3---3---3--L--------|--3-------3--L--------|--------------------|


 E. E. E H      E. E. E H      E. E. E H
----------------------|----------------------|----------------------|
----------------------|----------------------|----------------------|
----------------------|----------------------|----------------------|
------5---------------|----------1--L--------|--5-------------------|
----------------------|------1---------------|------5---------------|
--3-------3--L--------|--3-------------------|----------3--L--------|


 Q.   S S S S S S S S S S  E. S E. S S S E E S S
-----------------------------|----------------------------|
-----------------------------|----------------------------|
-----------7-8-5-7---5-------|----------------------------|
-------------------8---7-8-7-|----------------------------|
-----------------------------|----------------------------|
--8------L-------------------|--3---3-----1-3-1-3-----1-3-|


 E. S E. S S S E E E   E. S E. S S S E Q
---------------------------|--------------------------|
---------------------------|--------------------------|
---------------------------|--------------------------|
---------------------------|--------------------------|
---------------------------|--------------------------|
--3---3-----1-3-1-3--3--1--|--3---3-----1-3-1-3--3----|


 Q.   S S S S S S S S S S  S S S S S S S S S S S S S S S S
-----------------------------|----------------------------------|
-----------------------------|----------------------------------|
-----------------------------|----------------------------------|
-----------------------------|----------------------------------|
-----------5-6-3-5-----------|----------------------------------|
--8------L---------6-7-5-6-5-|--1-3-3-1-3-3-1-3-3-1-3-3---1-3-3-|


 S S S S S S S S S S S S S S S S  S S S S S S S S S S S S S S S S
----------------------------------|----------------------------------|
----------------------------------|----------------------------------|
----------------------------------|----------------------------------|
----------------------------------|----------------------------------|
----------------------------------|----------------------------------|
--1-3-3-1-3-3-1-3-3-1-3-3---1-3-3-|--1-3-3-1-3-3-1-3-3-1-3-3---1-3-3-|


            (2.48) to 9/8

 H    H      H     H    E   H.      E. S S S
--------------------|------------------------|-------------------------|
--------------------|------------------------|-------------------------|
--------------------|------------------------|-------------------------|
--------------------|------------------------|-------------------------|
--3-----------------|--8\--------------------|-------------------4-4-4-|
-----------2--------|------------------------|-------------------------|


 S S S S S S S S S S S S S S S S S S  S S S S S S S S S S S S S S S S S S
--------------------------------------|--------------------------------------|
--------------------------------------|--------------------------------------|
--------------------------------------|--------------------------------------|
--3-3-3-3---3-3-3-3---3-3-3-3---3-3-3-|--3-3-3-3---3-3-3-3---3-3-3-3---3-3-3-|
--------------------------------------|--------------------------------------|
--------------------------------------|--------------------------------------|


 S S S S S S S S S S S S S S S S S S  S S S S S S S S S S S S S S S S S S
--------------------------------------|--------------------------------------|
--------------------------------------|--------------------------------------|
--------------------------------------|--------------------------------------|
--3-3-3-3---3-3-3-3---3-3-3-3---3-3-3-|--3-3-3-3---3-3-3-3---3-3-3-3---3-3-3-|
--------------------------------------|--------------------------------------|
--------------------------------------|--------------------------------------|


 S S S S S S S S S S S S S S S S S S  S S S S S S S S S S S S S S S S S S
--------------------------------------|--------------------------------------|
--------------------------------------|--------------------------------------|
--------------------------------------|--------------------------------------|
--------------------------------------|--------------------------------------|
--------------------------------------|--------------------------------------|
--3-3-3-3---3-3-3-3---3-3-3-3---3-3-3-|--3-3-3-3---3-3-3-3---3-3-3-3---3-3-3-|


 S S S S S S S S S S S S S S S S S S  S S S S S S S S S S S S S E.
--------------------------------------|--------------------------------|
--------------------------------------|--------------------------------|
--------------------------------------|--------------------------------|
--3-3-3-3---3-3-3-3---3-3-3-3---3-3-3-|--3-3-3-3---3-3-3-3---3-3-3-3---|
--------------------------------------|--------------------------------|
--------------------------------------|--------------------------------|


(3.19) Verse 1

 S S S S S S S S S S S S S S E   S S S S S S S S S S S S S E.
---------------------------------|---------------------------------|
---------------------------------|---------------------------------|
---------------------------------|---------------------------------|
--5-5-5-5---5-5-5-5---5-5-5-5----|--5-5-5-5---5-5-5-5---5-5-5-5\---|
---------------------------------|---------------------------------|
---------------------------------|---------------------------------|


 S S S S S S S S S S S S S S E   S S S S S S S S S S S S S S S S
---------------------------------|----------------------------------|
---------------------------------|----------------------------------|
---------------------------------|----------------------------------|
---------------------------------|----------------------------------|
--0-0-0-0---0-0-0-0---0-0-0-0----|--0-0-0-0---0-0-0-0---0-0-0---0-0-|
---------------------------------|----------------------------------|


 S S S S S S S S S S S S S S E   S S S S S S S S S S S S S E.
---------------------------------|---------------------------------|
---------------------------------|---------------------------------|
---------------------------------|---------------------------------|
--5-5-5-5---5-5-5-5---5-5-5-5----|--5-5-5-5---5-5-5-5---5-5-5-5\---|
---------------------------------|---------------------------------|
---------------------------------|---------------------------------|


 S S S S S S S S S S S S S S E   S S S S S S S S S S S S S E.
---------------------------------|--------------------------------|
---------------------------------|--------------------------------|
---------------------------------|--------------------------------|
---------------------------------|--------------------------------|
--0-0-0-0---0-0-0-0---0-0-0-0----|--0-0-0-0---0-0-0-0---0-0-0-1---|
---------------------------------|--------------------------------|


 S S S S S S S S S S S S S S S S S S  S S S S S S S S S S S S S S S S S S
--------------------------------------|--------------------------------------|
--------------------------------------|--------------------------------------|
--------------------------------------|--------------------------------------|
--5-5-5-5---4-4-4-4---3-3-3-3---2-2-2-|--5-5-5-5---4-4-4-4---3-3-3-3---2-2-2-|
--------------------------------------|--------------------------------------|
--------------------------------------|--------------------------------------|


 S S S S S S S S S S S S S S S S  S S S S S S S S S S S S S S S S  S S E
----------------------------------|----------------------------------|---------|
----------------------------------|----------------------------------|---------|
----------------------------------|----------------------------------|---------|
----------------------------------|----------------------------------|---------|
----------------------------------|----------------------------------|---------|
--3-3-3-3-2-2-2-2-1-1-1-1-0-0-0-0-|--3-3-3-3-2-2-2-2-1-1-1-1-0-0-0-0-|--0-0-0--|


(3.53) Prechorus 1

 S S S S S S S S S S S S S S S S  S S S S S S S S S S S S S S S S
----------------------------------|----------------------------------|
----------------------------------|----------------------------------|
----------------------------------|----------------------------------|
----------------------------------|------------------0-0-0-0-2-2-----|
--2-2-0-2-L-0-2-2-0-2-L-0-2-2-0-2-|--L-0-2-2-0-2-L-0-------------0-0-|
----------------------------------|----------------------------------|


 S S S S S S S S S S S S S S S S  S S S S S S S S S S S S S S S S
----------------------------------|----------------------------------|
----------------------------------|----------------------------------|
----------------------------------|----------------------------------|
----------------------------------|------------------0-0-0-0-0-0-0-0-|
--2-2-0-2-L-0-2-2-0-2-L-0-2-2-0-2-|--3-3-3-3-3-3-3-3-----------------|
----------------------------------|----------------------------------|


(4.03) Chorus 1

 H    Q.   E   H    Q.   E   H    Q.   E
---------------------|---------------------|---------------------|
---------------------|---------------------|---------------------|
---------------------|---------------------|---------------------|
--2--------0---------|---------------------|---------------------|
------------------3--|--L--------2------0--|--L--------3------2--|
---------------------|---------------------|---------------------|


 H    Q  Q    H    Q.   E   H    Q.   E
---------------------|---------------------|---------------------|
---------------------|---------------------|---------------------|
---------------------|---------------------|---------------------|
-----------1---------|--2--------0---------|---------------------|
--L-------------2----|------------------3--|--L--------2------0--|
---------------------|---------------------|---------------------|


 H    H      S S S S S S S S S S S S S S S S
--------------------|----------------------------------|
--------------------|----------------------------------|
--------------------|----------------------------------|
--------------------|----------------------------------|
--L--------3--------|--2-2-2-2-2-2-2-2-2-2-2-2-2-2-2-2-|
--------------------|----------------------------------|


 S S S S S S S S S S S S S S E   S S S S S S S S S S S S S S S S
---------------------------------|----------------------------------|
---------------------------------|----------------------------------|
---------------------------------|----------------------------------|
------------------------------0--|--2-2-2-2-2-2-2-2-2-2-2-2-2-2-2-2-|
--2-2-2-2-2-2-2-2-3-3-3-3-3-3----|----------------------------------|
---------------------------------|----------------------------------|

                     (4.33) Verse 2

 S S S S S S S S S S S S S S S S     S S S S S S S S S S S S S S E
----------------------------------|-----|---------------------------------|
----------------------------------|-----|---------------------------------|
----------------------------0-2-5-|-----|---------------------------------|
--3-3-3-3-3-3-3-3-3-3-3-3-3-------|-----|--5-5-5-5---5-5-5-5---5-5-5-5----|
----------------------------------|-----|---------------------------------|
----------------------------------|-----|---------------------------------|


 S S S S S S S S S S S S S E.   S S S S S S S S S S S S S S E
---------------------------------|---------------------------------|
---------------------------------|---------------------------------|
---------------------------------|---------------------------------|
--5-5-5-5---5-5-5-5---5-5-5-5\---|---------------------------------|
---------------------------------|--0-0-0-0---0-0-0-0---0-0-0-0----|
---------------------------------|---------------------------------|


 S S S S S S S S S S S S S S S S  S S S S S S S S S S S S S S E
----------------------------------|---------------------------------|
----------------------------------|---------------------------------|
----------------------------------|---------------------------------|
----------------------------------|--5-5-5-5---5-5-5-5---5-5-5-5----|
--0-0-0-0---0-0-0-0---0-0-0---0-0-|---------------------------------|
----------------------------------|---------------------------------|


 S S S S S S S S S S S S S E.   S S S S S S S S S S S S S S E
---------------------------------|---------------------------------|
---------------------------------|---------------------------------|
---------------------------------|---------------------------------|
--5-5-5-5---5-5-5-5---5-5-5-5\---|---------------------------------|
---------------------------------|--0-0-0-0---0-0-0-0---0-0-0-0----|
---------------------------------|---------------------------------|


 S S S S S S S S S S S S S E.   S S S S S S S S S S S S S S S S S S
--------------------------------|--------------------------------------|
--------------------------------|--------------------------------------|
--------------------------------|--------------------------------------|
--------------------------------|--5-5-5-5---4-4-4-4---3-3-3-3---2-2-2-|
--0-0-0-0---0-0-0-0---0-0-0-1---|--------------------------------------|
--------------------------------|--------------------------------------|


                     |--3--| |--3--| |--3--| |--3--|
 S S S S S S S S S S S S S S S S S S  E E E E E E E E E E E E
--------------------------------------|--------------------------------------|
--------------------------------------|--------------------------------------|
--------------------------------------|--------------------------------------|
--5-5-5-5---4-4-4-4---3-3-3-3---2-2-2-|--------------------------------------|
--------------------------------------|--------------------------------------|
--------------------------------------|--3--3--3--2--2--2--1--1--1--0--0--0--|


                    (5.07) Chorus 2

 |--3--| |--3--| |--3--| |--3--|
 E E E E E E E E E E E E   H    Q.   E
--------------------------------------|---------------------|
--------------------------------------|---------------------|
--------------------------------------|---------------------|
--------------------------------------|--2--------0---------|
--------------------------------------|------------------3--|
--3--3--3--2--2--2--1--1--1--0--0--0--|---------------------|


 H    Q.   E   H    Q.   E   H    Q  Q
---------------------|---------------------|---------------------|
---------------------|---------------------|---------------------|
---------------------|---------------------|---------------------|
---------------------|---------------------|-----------1---------|
--L--------2------0--|--L--------3------2--|--L-------------2----|
---------------------|---------------------|---------------------|


 H    Q.   E   H    Q.   E   H    H
---------------------|---------------------|--------------------|
---------------------|---------------------|--------------------|
---------------------|---------------------|--------------------|
--2--------0---------|---------------------|--------------------|
------------------3--|--L--------2------0--|--L--------3--------|
---------------------|---------------------|--------------------|


 S S S S S S S S S S S S S S S S  S S S S S S S S S S S S S S S S
----------------------------------|----------------------------------|
----------------------------------|----------------------------------|
----------------------------------|----------------------------------|
----------------------------------|----------------------------------|
--2-2-2-2-2-2-2-2-2-2-2-2-2-2-2-2-|--0-0-0-0-0-0-0-0-0-0-0-0-0-0-0-0-|
----------------------------------|----------------------------------|


 S S S S S S S S S S S S S S S S  S S S S S S S S S S S S S S S S
----------------------------------|----------------------------------|
----------------------------------|----------------------------------|
----------------------------------|----------------------------------|
----------------------------------|----------------------------------|
----------------------------------|----------------------------------|
--3-3-3-3-3-3-3-3-3-3-3-3-3-3-3-3-|--1-1-1-1-1-1-1-1-1-1-1-1-1-1-1-1-|


 T T S S S S S S S S S S S S S S S  T T S S S S S S S S S S S S S S S
------------------------------------|------------------------------------|
------------------------------------|------------------------------------|
------------------------------------|------------------------------------|
------------------------------------|------------------------------------|
--2-2-2-2-2-2-2-2-2-2-2-2-2-2-2-2-2-|--0-0-0-0-0-0-0-0-0-0-0-0-0-0-0-0-0-|
------------------------------------|------------------------------------|

                   (5.44) Bridge - Solo

 T T S S S S S S S S S S S S S S S  E E H.
------------------------------------|---------------------|
------------------------------------|---------------------|
------------------------------------|---------------------|
------------------------------------|--3--3---------------|
------------------------------------|---------------------|
--3-3-3-3-3-3-3-3-3-3-3-3-3-3-3-3-3-|---------------------|


 E E H.       E E H.       E E Q  Q  S E.
---------------------|---------------------|------------------------|
---------------------|---------------------|------------------------|
---------------------|---------------------|------------------------|
--3--3---------------|--7--7---------------|--7--7--------------5---|
---------------------|---------------------|------------------------|
---------------------|---------------------|------------------------|


 E E H.       E E H.       E E H.
---------------------|---------------------|---------------------|
---------------------|---------------------|---------------------|
---------------------|---------------------|---------------------|
--3--3---------------|--3--3---------------|---------------------|
---------------------|---------------------|--0--0---------------|
---------------------|---------------------|---------------------|


 E E Q  Q  S E.   E E Q  E E Q    E E Q  E E Q
------------------------|------------------------|------------------------|
------------------------|------------------------|------------------------|
------------------------|------------------------|------------------------|
------------------------|------------------------|------------------------|
--0--0------------------|------------------------|------------------------|
--------------------3---|--1--1-------1--1-------|--1--1-------1--1-------|


 E E Q  E E Q    E E Q  E E E S S  E E Q  E E Q
------------------------|--------------------------|------------------------|
------------------------|--------------------------|------------------------|
------------------------|--------------------------|------------------------|
------------------------|------------------------2-|--3--3-------3--3-------|
------------------------|-------------------2--3---|------------------------|
--2--2-------2--2-------|--2--2-------2--5---------|------------------------|


 E E Q  E E Q    E E Q  E E Q    E E Q  E S S S E.
------------------------|------------------------|--------------------------|
------------------------|------------------------|--------------------------|
------------------------|------------------------|--------------------------|
--3--3-------3--3-------|--4--4-------4--4-------|--4--4-------4--4-4-4-2---|
------------------------|------------------------|--------------------------|
------------------------|------------------------|--------------------------|


(6.26) Descent to Osiris

 S S S S S S S S S S S S S S S S  S S S S S S S S S S S S S S S S
----------------------------------|----------------------------------|
----------------------------------|----------------------------------|
----------------------------------|----------------------------------|
--0-0-0-0-0-0-0-0-0-0-0-0-0-0-0-0-|--0-0-0-0-0-0-0-0-0-0-0-0-0-0-0-0-|
----------------------------------|----------------------------------|
----------------------------------|----------------------------------|


 S S S S S S S S S S S S S S S S  S S S S T T S S T T S S S S S S S S
----------------------------------|--------------------------------------|
----------------------------------|--------------------------------------|
----------------------------------|--------------------------------------|
--0-0-0-0-0-0-0-0-0-0-0-0-0-0-0-0-|--0-1-4-5-4-5-4-1-4-5-4-1-4-5-7-5-4-1-|
----------------------------------|--------------------------------------|
----------------------------------|--------------------------------------|


               |--3--|
 S T T S S S S S S S T T S S E E E   H    H
---------------------------------------|--------------------|
---------------------------------------|--------------------|
--7-8-7-6---7--------------------------|--------------------|
----------8---8-7-5-4-4-5-4---4--------|--------------------|
----------------------------6----6--5--|--3-----------------|
---------------------------------------|-----------4--------|


          (6.44)

 W          E E E E E E E E   E E E E E E E S S
-------------------|--------------------------|---------------------------|
-------------------|--------------------------|---------------------------|
-------------------|--------------------------|---------------------------|
-------------------|--------------------------|---------------------------|
-------------------|--------------------------|---------------------------|
--L----------------|--3--3--3--3--3--3--3--3--|--3--3--3--3--3--3--3--3-3-|


 E E E E E E E E   E E E E E E E S S
--------------------------|---------------------------|
--------------------------|---------------------------|
--------------------------|---------------------------|
--------------------------|---------------------------|
--0--0--0--0--0--0--0--0--|--0--0--0--0--0--0--2--0---|
--------------------------|-------------------------2-|


 E E E E E E E E   E E E E E E S S S S
--------------------------|----------------------------|
--------------------------|----------------------------|
--------------------------|----------------------------|
--------------------------|----------------------------|
--------------------------|------------------------2-5-|
--3--3--3--3--3--3--3--3--|--3--3--3--3--3--3--3-5-----|


 S S E E E E E E E   E E E E E E E E
---------------------------|--------------------------|
---------------------------|--------------------------|
---------------------------|--------------------------|
---------------------------|--------------------------|
--5-4-0--0--0--0--0--0--0--|--0--0--0--0--0--0--0--2--|
---------------------------|--------------------------|


 E S S E S S E S S E S S  E S S E S S E S S E S S
------------------------------|------------------------------|
------------------------------|------------------------------|
------------------------------|------------------------------|
------------------------------|------------------------------|
------------------------------|------------------------------|
-----3-3----3-3----3-3----3-3-|-----3-3----3-3----3-3----3-3-|


 E S S E S S E S S E S S  E S S E S S E S S S S S S
------------------------------|-------------------------------|
------------------------------|-------------------------------|
------------------------------|-------------------------------|
------------------------------|-------------------------------|
-----0-0----0-0----0-0----0-0-|-----0-0----0-0----0-0---1-1-1-|
------------------------------|-------------------------------|


(7.14) Verse 3

 S S S S S S S S S S S S S S E   S S S S S S S S S S S S S E.
---------------------------------|---------------------------------|
---------------------------------|---------------------------------|
---------------------------------|---------------------------------|
--5-5-5-5---5-5-5-5---5-5-5-5----|--5-5-5-5---5-5-5-5---5-5-5-5\---|
---------------------------------|---------------------------------|
---------------------------------|---------------------------------|


 S S S S S S S S S S S S S S E   S S S S S S S S S S S S S E.
---------------------------------|--------------------------------|
---------------------------------|--------------------------------|
---------------------------------|--------------------------------|
---------------------------------|--------------------------------|
--0-0-0-0---0-0-0-0---0-0-0-0----|--0-0-0-0---0-0-0-0---0-0-0-1---|
---------------------------------|--------------------------------|


 S S S S S S S S S S S S S S S S S S  S S S S S S S S S S S S S S S S S S
--------------------------------------|--------------------------------------|
--------------------------------------|--------------------------------------|
--------------------------------------|--------------------------------------|
--5-5-5-5---4-4-4-4---3-3-3-3---2-2-2-|--5-5-5-5---4-4-4-4---3-3-3-3---2-2-2-|
--------------------------------------|--------------------------------------|
--------------------------------------|--------------------------------------|


 S S S S S S S S S S S S S S S S  S S S S S S S S S S S S S S S S  S S E
----------------------------------|----------------------------------|---------|
----------------------------------|----------------------------------|---------|
----------------------------------|----------------------------------|---------|
----------------------------------|----------------------------------|---------|
----------------------------------|----------------------------------|---------|
--3-3-3-3-2-2-2-2-1-1-1-1-0-0-0-0-|--3-3-3-3-2-2-2-2-1-1-1-1-0-0-0-0-|--0-0-0--|


 S S S S S S S S S S S S S S S S  S S S S S S S S S S S S S S S S
----------------------------------|----------------------------------|
----------------------------------|----------------------------------|
----------------------------------|----------------------------------|
----------------------------------|------------------0-0-0-0-2-2-----|
--2-2-0-2-L-0-2-2-0-2-L-0-2-2-0-2-|--L-0-2-2-0-2-L-0-------------0-0-|
----------------------------------|----------------------------------|


 S S S S S S S S S S S S S S S S  S S S S S S S S S S S S S S S S
----------------------------------|----------------------------------|
----------------------------------|----------------------------------|
----------------------------------|----------------------------------|
----------------------------------|------------------0-0-0-0-0-0-0-0-|
--2-2-0-2-L-0-2-2-0-2-L-0-2-2-0-2-|--3-3-3-3-3-3-3-3-----------------|
----------------------------------|----------------------------------|

(7.48) Chorus 3

 H    Q.   E   H    Q.   E   Q.   S S Q.   E
---------------------|---------------------|-----------------------|
---------------------|---------------------|-----------------------|
---------------------|---------------------|-----------------------|
--2--------0---------|---------------------|-----------------------|
------------------3--|--L--------2------0--|--L------0-2-3------2--|
---------------------|---------------------|-----------------------|


 H    Q  Q    Q.   S S Q.   E   Q.   S S Q.   E
---------------------|-----------------------|-----------------------|
---------------------|-----------------------|-----------------------|
---------------------|-----------------------|-----------------------|
-----------1---------|--2--------2-0---------|-----------------------|
--L-------------2----|---------3----------3--|--L------0-3-2------0--|
---------------------|-----------------------|-----------------------|

                      (8.09) Chorus 4
 H    Q.   E   H    Q  Q    H    Q.   E
---------------------|---------------------|---------------------|
---------------------|---------------------|---------------------|
---------------------|---------------------|---------------------|
-----------0---------|-----------1---------|--2--------0---------|
--L---------------2--|--L-------------2----|------------------3--|
---------------------|---------------------|---------------------|


 H    Q.   E   Q.   S S Q.   E   H    Q  Q
---------------------|-----------------------|---------------------|
---------------------|-----------------------|---------------------|
---------------------|-----------------------|---------------------|
---------------------|-----------------------|-----------1---------|
--L--------2------0--|--L------0-2-3------2--|--L-------------2----|
---------------------|-----------------------|---------------------|


 EEEEEEEEEEEEEEEEEEEEEEEEEEEEEYES

 H    E. E. E   H    E. E. E   Q  S S S S H
----------------------|----------------------|------------------------|
----------------------|----------------------|------------------------|
----------------------|----------------------|-------2-0--------------|
--2--------0---0------|----------------------|-----------2-0----------|
-------------------3--|--L--------2---2---0--|--L------------3--------|
----------------------|----------------------|------------------------|


(8.27) Outro

 S S S S S S S S S S S S S S S S  S S S S S S S S S S S S S S S S
----------------------------------|----------------------------------|
----------------------------------|----------------------------------|
----------------------------------|----------------------------------|
----------------------------------|----------------------------------|
--2-2-2-2-2-2-2-2-2-2-2-2-2-2-2-2-|--0-0-0-0-0-0-0-0-0-0-0-0-0-0-0-0-|
----------------------------------|----------------------------------|


 S S S S S S S S S S S S S S S S  S S S S S S S S S S S S S S S S
----------------------------------|----------------------------------|
----------------------------------|----------------------------------|
----------------------------------|----------------------------------|
----------------------------------|----------------------------------|
----------------------------------|----------------------------------|
--3-3-3-3-3-3-3-3-3-3-3-3-3-3-3-3-|--1-1-1-1-1-1-1-1-1-1-1-1-1-1-1-1-|


 T T S S S S S S S S S S S S S S S  T T S S S S S S S S S S S S S S S
------------------------------------|------------------------------------|
------------------------------------|------------------------------------|
------------------------------------|------------------------------------|
------------------------------------|------------------------------------|
--2-2-2-2-2-2-2-2-2-2-2-2-2-2-2-2-2-|--0-0-0-0-0-0-0-0-0-0-0-0-0-0-0-0-0-|
------------------------------------|------------------------------------|


 T T S S S S S S S S S S S S S S S  S S S S S S S S S S S S S S S S
------------------------------------|-----------------------------------|----|
------------------------------------|-----------------------------------|----|
------------------------------------|-----------------------------------|----|
------------------------------------|----10-----9-----8-----7-----------|----|
------------------------------------|--8----8-7---7-6---6-5---5-4-3-2-1-|----|
--3-3-3-3-3-3-3-3-3-3-3-3-3-3-3-3-3-|-----------------------------------|----|


 W          E E H.
-------------------|---------------------||
-------------------|---------------------||
-------------------|---------------------||
-------------------|---------------------||
--3----------------|--2--2---------------||
-------------------|---------------------||



Duration 🏷Legend
---------------
W - whole
H - half
Q - quarter
E - 8th
S - 16th
T - 32nd
X - 64th
. - note dotted
|-n-| - n-tuplets


Tablature 🏷Legend
----------------
L - tied note
x - dead note
g - grace note
(n) - ghost note
> - accentuded note
NH - natural harmonic
AH - artificial harmonic
TH - tapped harmonic
SH - semi harmonic
PH - pitch harmonic
h - hammer on
p - pull off
b - bend
br - bendRelease
pb - preBend
pbr - preBendRelease
brb - bendReleaseBend
\n/ - tremolo bar dip
\n - tremolo bar dive
-/n - tremolo bar Release up
/n\ - tremolo bar inverted dip
/n - tremolo bar return
-\n - tremolo bar Release down
S - shift slide
s - legato slide
/ - slide into from below or out of upwards
\ - slide into from above or out of downwards
~ - vibrato
W - wide vibrato
tr - trill
TP - tremolo picking
T - tapping
S - slap
P - pop
< - fade in
^ - brush up

Almost there ...

Sign in to get your own page with links to favourite songs and more. You are just one click away...

Login with Facebook Login with Google