Log in

One click and you are in

Login with Facebook Login with Google

Why sign up and log in

Guitar Tabs Explorer
Pagans Mind bass tabs for Taken

Bass tabs with lyrics

Pagan's Mind - Taken


Intro
                   E E Q  H
C||-------|-------|-------|-------|----------------------|-----------|
G||-------|-------|-------|-------|----------------------|-----------|
D||-------|-------|-------|-------|----------------------|-----------|
A||-------|-------|-------|-------|----------------------|-----------|
E||-------|-------|-------|-------|----------------------|-----------|
B||-------|-------|-------|-------|--5--4--2-------------|-----------|
             E E E E E E E E   E E E E E E E E
-----------|-----------|--------------------------|--------------------------|
-----------|-----------|--------------------------|--------------------------|
-----------|-----------|--------------------------|--------------------------|
-----------|-----------|--------------------------|--2-----------------------|
-----------|-----------|--------1--2--4--2--5--4--|-----5--4--2--5--4--2--1--|
-----------|-----------|--2--3--------------------|--------------------------|


 E E E   Q  H.                E E Q  E E E
-----------|--------------------|-----|-----|-----|----------------------|
-----------|--------------------|-----|-----|-----|----------------------|
-----------|--------------------|-----|-----|-----|----------------------|
-----------|--------------------|-----|-----|-----|----------------------|
--2--1-----|--------------------|-----|-----|-----|----------------------|
--------3--|--0-----------------|-----|-----|-----|--5--4--2----5--4--2--|


 E E Q  E E E   E E Q  E E E   E E Q  E E E
----------------------|----------------------|----------------------|
----------------------|----------------------|----------------------|
----------------------|----------------------|----------------------|
----------------------|----------------------|----------------------|
----------------------|--2--0-------2--0-----|--2--0-------2--0-----|
--5--4--2----5--4--2--|--------2----------2--|--------2----------2--|

 E E Q  E E E   E E Q  E E E   E E Q  E E E
----------------------|----------------------|----------------------|
----------------------|----------------------|----------------------|
----------------------|----------------------|----------------------|
----------------------|----------------------|----------------------|
--3--0-------3--0-----|--3--0-------3--0-----|--5--0-------5--0-----|
--------2----------2--|--------2----------2--|--------2----------2--|


 E E Q  E E E   E E E E E E   E E E E E E
----------------------|--------------------|--------------------|
----------------------|--------------------|--------------------|
----------------------|--------------------|--------------------|
----------------------|--------------------|--------------------|
--5--0-------5--0-----|-----------2--0-----|--3--0-----5--0-----|
--------2----------2--|--5--4--2--------2--|--------2--------2--|


  E E Q  E E E   E E Q  E E E   E E Q  E E E
|-----------------------|----------------------|----------------------|
|-----------------------|----------------------|----------------------|
|*----------------------|----------------------|----------------------|
|*----------------------|----------------------|----------------------|
|-----------------------|----------------------|--2--0-------2--0-----|
|---5--4--2----5--4--2--|--5--4--2----5--4--2--|--------2----------2--|


 E E Q  E E E   E E Q  E E E   E E Q  E E E
----------------------|----------------------|----------------------|
----------------------|----------------------|----------------------|
----------------------|----------------------|----------------------|
----------------------|----------------------|----------------------|
--2--0-------2--0-----|--3--0-------3--0-----|--3--0-------3--0-----|
--------2----------2--|--------2----------2--|--------2----------2--|


 E E Q  E E E   E E Q  E E E    E E E E E E E E
----------------------|-----------------------||--------------------------|
----------------------|-----------------------||--------------------------|
----------------------|----------------------*||--------------------------|
----------------------|----------------------*||--------------------------|
--5--0-------5--0-----|--5--0-------3--0------||--------1--2--4--2--5--4--|
--------2----------2--|--------2----------2---||--2--3--------------------|


                     Verse: (They came!)
 E E E E E E E E   E E E   Q      H.
--------------------------|-----------|----------------------------|
--------------------------|-----------|----------------------------|
--------------------------|-----------|----------------------------|
--2-----------------------|-----------|----------------------------|
-----5--4--2--5--4--2--1--|--2--1-----|----------------------------|
--------------------------|--------3--|--0-------------------------|


 W          W          W
-------------------|-------------------|-------------------|
-------------------|-------------------|-------------------|
-------------------|-------------------|-------------------|
-------------------|-------------------|-------------------|
-------------------|-------------------|-------------------|
-------------------|-------------------|-------------------|


FAAAAAAR AWAAAAAAAAAAAY

  E E E E E E S S S S  E E E E E E S S S S
|-----------------------------|----------------------------|
|-----------------------------|----------------------------|
|*----------------------------|----------------------------|
|*--2--4----------------------|----------------------------|
|-----------------------------|----------------------------|
|---------2--2--2--2--2-2-2-2-|--2--2--2--2--2--2--2-2-2-2-|


 E E E E E E S S S S  E E E E E E S S S S
----------------------------|-----------------------------||
----------------------------|-----------------------------||
----------------------------|----------------------------*||
----------------------------|----------------------------*||
--------1--------1----------|--1--------1--------1-1------||
--2--3-----2--3-----2-2-3-3-|-----2--3-----2--3------3-2--||


 Q  E E Q  E E   E E E E E E Q    E Q  E Q  E E
------------------------|-------------------------|------------------------|
------------------------|-------------------------|------------------------|
------------------------|-------------------------|------------------------|
------------------------|-------------------------|------------------------|
-------------7----------|--------------7----------|--6--6----6--6----6--6--|
--0----0--0-------0--0--|--L--0--0--0-----0--0----|------------------------|


 Q  E E E E E E    E E E E E E S S S S
-------------------------||-----------------------------|
-------------------------||-----------------------------|
-------------------------||*----------------------------|
-------------------------||*--4--6----------------------|
--L----6--6--6--6--6--6--||-----------------------------|
-------------------------||---------4--4--4--4--4-4-4-4-|


 E E E E E E S S S S  E E E E E E S S S S
----------------------------|----------------------------|
----------------------------|----------------------------|
----------------------------|----------------------------|
----------------------------|----------------------------|
----------------------------|--------3--------3----------|
--4--4--4--4--4--4--4-4-4-4-|--4--5-----4--5-----4-4-5-5-|


                Chorus (Taken)

 E E E E E E S S S S    E E Q  E E E E
-----------------------------||--------------------------|
-----------------------------||--------------------------|
----------------------------*||*-------------------------|
----------------------------*||*-------------------------|
--3--------3--------3-3------||--------------------------|
-----4--5-----4--5------5-4--||---2--2--2----2--2-----2--|


 E E Q  H      E E Q  E E E E   E E Q  H
----------------------|-------------------------|----------------------|
----------------------|-------------------------|----------------------|
----------------------|-------------------------|----------------------|
----------------------|-------------------------|----------------------|
----------------------|-------------------------|----------------------|
--2--2--2----4--------|--2--2--2----2--2-----2--|--2--2--2----4--------|


 W          H    E E E E    E E Q  E E E E
-------------------|------------------------||-------------------------|
-------------------|------------------------||-------------------------|
-------------------|-----------------------*||-------------------------|
-------------------|-----------------------*||-------------------------|
--1----------------|--3--------4--3--1------||--2--2--2----2--2-----2--|
-------------------|--------------------4---||-------------------------|


 E E Q  E Q.    E E Q  E E E E   E E Q  E Q.
-----------------------|-------------------------|-----------------------|
-----------------------|-------------------------|-----------------------|
-----------------------|-------------------------|-----------------------|
-----------------------|-------------------------|-----------------------|
--2--2--2----4--4------|--2--2--2----2--2-----2--|--2--2--2----4--4------|
-----------------------|-------------------------|-----------------------|


 W          Q  E E E E Q    E E Q  E E E E
-------------------|-------------------------|-------------------------|
-------------------|-------------------------|-------------------------|
-------------------|-------------------------|-------------------------|
--1----------------|--3----3--3--4--4--6\----|-------------------------|
-------------------|-------------------------|--2--2--2----2--2-----2--|
-------------------|-------------------------|-------------------------|


 E E Q  E Q.    E E Q  E E E E   E E Q  E Q.
-----------------------|-------------------------|-----------------------|
-----------------------|-------------------------|-----------------------|
-----------------------|-------------------------|-----------------------|
-----------------------|-------------------------|-----------------------|
--2--2--2----4--4------|--2--2--2----2--2-----2--|--2--2--2----4--4------|
-----------------------|-------------------------|-----------------------|


 W          W          W
-------------------|-------------------|-------------------|
-------------------|-------------------|-------------------|
-------------------|-------------------|-------------------|
--1----------------|-------------------|-------------------|
-------------------|-------------------|-------------------|
-------------------|--1----------------|--0----------------|


 Q.   E E E E E   Q.   E Q.   E   E Q  Q  Q.
------------------------|----------------------|----------------------|
------------------------|----------------------|----------------------|
------------------------|----------------------|----------------------|
---------9--8-----6-----|----------------------|----------------------|
---------------9--------|--7------7--L---------|--7--6----4-----------|
--L------------------7--|-------------------7--|---------------7------|



Verse 2 / Pre-verse

  E E Q  E E E   E E E E Q  E   E E Q  E E E
|-----------------------|----------------------|----------------------|
|-----------------------|----------------------|----------------------|
|*----------------------|----------------------|----------------------|
|*----------------------|----------------------|----------------------|
|-----------------------|----------------------|--2--0-------------0--|
|---5--4--2-------2-----|--2-----2-----2----5--|--------2-------2-----|


 E E E E Q  E   E E Q  E E E   Q  Q  Q  E
----------------------|----------------------|--------------------|
----------------------|----------------------|--------------------|
----------------------|----------------------|--------------------|
----------------------|----------------------|--------------------|
--2-----0-------------|--3--0----------------|--0----2----3----0--|
--------------2----0--|--------2-------2--3--|--------------------|


 E E Q  E E E   E E Q  E E E    E E Q  E E E
----------------------|-----------------------||----------------------|
----------------------|-----------------------||----------------------|
----------------------|----------------------*||----------------------|
----------------------|----------------------*||----------------------|
--5--0----------------|--5--0-------3--0------||----------------------|
--------2-------2-----|--------2----------2---||--5--4--2----5--4--2--|


 E E Q  E E E   E E Q  E E E   E E Q  E E E
----------------------|----------------------|----------------------|
----------------------|----------------------|----------------------|
----------------------|----------------------|----------------------|
----------------------|----------------------|----------------------|
----------------------|--2--0-------2--0-----|--2--0-------2--0-----|
--5--4--2----5--4--2--|--------2----------2--|--------2----------2--|


 E E Q  E E E   E E Q  E E E   E E Q  E E E
----------------------|----------------------|----------------------|
----------------------|----------------------|----------------------|
----------------------|----------------------|----------------------|
----------------------|----------------------|----------------------|
--3--0-------3--0-----|--3--0-------3--0-----|--5--0-------5--0-----|
--------2----------2--|--------2----------2--|--------2----------2--|


 E E E E E E   E E E E E E   E E Q  E E E E
--------------------|--------------------|-------------------------|
--------------------|--------------------|-------------------------|
--------------------|--------------------|-------------------------|
--------------------|--------------------|-------------------------|
-----------2--0-----|--3--0-----5--0-----|--6--6--6----6--6-----6--|
--5--4--2--------2--|--------2--------2--|-------------------------|


             |----3----|        |----3----|
 Q  E Q  E Q    Q  Q  Q  H      Q  Q  Q  H
-----------------------|--------------------------|--------------------------|
-----------------------|--------------------------|--------------------------|
-----------------------|--------------------------|--------------------------|
-----------------------|--------------------------|--------------------------|
--6----6--6----6--6----|--6----6----6-------------|--6----6----6-------------|
-----------------------|--------------------------|--------------------------|



Chorus
  E E Q  E E E E   E E Q  H      E E Q  E E E E
|--------------------------|----------------------|-------------------------|
|--------------------------|----------------------|-------------------------|
|*-------------------------|----------------------|-------------------------|
|*-------------------------|----------------------|-------------------------|
|--------------------------|----------------------|-------------------------|
|---2--2--2----2--2-----2--|--2--2--2----4--------|--2--2--2----2--2-----2--|


 E E Q  H      W          H    E E E E
----------------------|-------------------|------------------------||
----------------------|-------------------|------------------------||
----------------------|-------------------|-----------------------*||
----------------------|-------------------|-----------------------*||
----------------------|--1----------------|--3--------4--3--1------||
--2--2--2----4--------|-------------------|--------------------4---||


 E E E E E E E E   E E E E E E E E   E E Q  E E E E
--------------------------|--------------------------|-------------------------|
--------------------------|--------------------------|-------------------------|
--------------------------|--------------------------|-------------------------|
--------------------------|--------------------------|-------------------------|
--1--1--1--1--1--1--1--1--|--3--3--3--3--4--3--1-----|--2--2--2----2--2-----2--|
--------------------------|-----------------------4--|-------------------------|


 E E Q  E Q.    E E Q  E E E E   E E Q  E Q.
-----------------------|-------------------------|-----------------------|
-----------------------|-------------------------|-----------------------|
-----------------------|-------------------------|-----------------------|
-----------------------|-------------------------|-----------------------|
--2--2--2----4--4------|--2--2--2----2--2-----2--|--2--2--2----4--4------|
-----------------------|-------------------------|-----------------------|


 W          H     H      E E Q  E E E E
-------------------|---------------------|-------------------------|
-------------------|---------------------|-------------------------|
-------------------|---------------------|-------------------------|
--1----------------|--3\-----------------|-------------------------|
-------------------|---------------------|--2--2--2----2--2-----2--|
-------------------|------------1--------|-------------------------|


 E E Q  E Q.    E E Q  E E E E   E E Q  E Q.
-----------------------|-------------------------|-----------------------|
-----------------------|-------------------------|-----------------------|
-----------------------|-------------------------|-----------------------|
-----------------------|-------------------------|-----------------------|
--2--2--2----4--4------|--2--2--2----2--2-----2--|--2--2--2----4--4------|
-----------------------|-------------------------|-----------------------|


 |----3----|  |----3----|    |----3----|  |----3----|
 Q  Q  Q  Q  Q  Q    Q  Q  Q  Q  Q  Q
--------------------------------|--------------------------------|
--------------------------------|--------------------------------|
--------------------------------|--------------------------------|
--1----1----1----1----1----1----|--3--------------3--------------|
--------------------------------|--------------------------------|
--------------------------------|-------1----1---------1----1----|


Solo (Bridge)

 B
 E E Q  E E E E   E E Q  E Q.    E E Q  E E E E
-------------------------|-----------------------|-------------------------|
-------------------------|-----------------------|-------------------------|
-------------------------|-----------------------|-------------------------|
--2--2--2----2--2-----2--|--2--2--2----4--4------|--L--2--2----2--2-----2--|
-------------------------|-----------------------|-------------------------|
-------------------------|-----------------------|-------------------------|


               C#
 E E E E E E E E   E E Q  E E E E   E E Q   H
--------------------------|-------------------------|-------------------------|
--------------------------|-------------------------|-------------------------|
-----4--3-----1-----------|-------------------------|-------------------------|
--2--------4-----4--2--1--|-------------------------|-------------/13~--------|
--------------------------|--4--4--4----4--4-----4--|--L--4--4----------------|
--------------------------|-------------------------|-------------------------|


                            B
 E E Q  E E E E   E E E E E E E E   E E Q  E E E E
-------------------------|--------------------------|-------------------------|
-------------------------|--------------------------|-------------------------|
-------------------------|--------------------------|-------------------------|
--L----------------------|-----------------------1--|--2--2--2----2--2-----2--|
-----4--4----4--4-----4--|--L--4--4-----4--4--4-----|-------------------------|
-------------------------|--------------------------|-------------------------|


 E E Q  E E E E   E E Q  E E E E   E E E E E E E E
-------------------------|-------------------------|--------------------------|
-------------------------|-------------------------|--------------------------|
-------------------------|-------------------------|--------------------------|
--L--2--2----4--4--4--4--|--L--2--2----2--2-----2--|--L--2--2--2--2--2--2--2--|
-------------------------|-------------------------|--------------------------|
-------------------------|-------------------------|--------------------------|


 C-
 E E E E E E E E   E E E E E Q  E   E E E E E E E E
--------------------------|-------------------------|--------------------------|
--------------------------|-------------------------|--------------------------|
--------------------------|-------------------------|--------------------------|
--3--3--3-----3--3-----3--|--L--3--3-----3--1-------|--3--3--3-----3--3-----3--|
--------------------------|----------------------3--|--------------------------|
--------------------------|-------------------------|--------------------------|


              B
 E E E Q  Q  E   E E E E E E E E   E E E E E E E E
------------------------|--------------------------|--------------------------|
------------------------|--------------------------|--------------------------|
------------------------|--------------------------|--------------------------|
--L------------------1--|--2--2--2--2--2--2--2--2--|--2--2--2--2--4--4--4--4--|
-----------1----3-------|--------------------------|--------------------------|
-----4--4---------------|--------------------------|--------------------------|


 E E E E E E E E   E E E E E E E E
--------------------------|--------------------------|
--------------------------|--------------------------|
--------------------------|--------------------------|
--L--2--2--2--2--2--2--2--|--2--2--2--2--4--2--1-----|
--------------------------|-----------------------2--|
--------------------------|--------------------------|


 Ab
 E E E E E E E E   E E E E E Q  E   E E Q  E E E E
--------------------------|-------------------------|-------------------------|
--------------------------|-------------------------|-------------------------|
--------------------------|--------------5--6----8--|--L----------------------|
--------------------------|-------------------------|-------------------------|
--4--4--4--4--4--4--4--4--|--4--4--4--4-------------|-----4--4----4--4--4--4--|
--------------------------|-------------------------|-------------------------|


               B
 E E E E E E E E   E E E E E E E E
--------------------------|--------------------------|
--------------------------|--------------------------|
--------------------------|--------------------------|
--------------------------|--2--2--2--2--2--2--2--2--|
--4--4--4--4--4--4--4--4--|--------------------------|
--------------------------|--------------------------|


 E E E E E E E E   E E E E E E E E
--------------------------|--------------------------|
--------------------------|--------------------------|
--------------------------|--------------------------|
--2--2--2--2--4--4--4--4--|--L--2--2--2--2--2--2--2--|
--------------------------|--------------------------|
--------------------------|--------------------------|


               C-
 E E E E E E E E   E E E E E E E E
--------------------------|--------------------------|
--------------------------|--------------------------|
--------------------------|--------------------------|
--2--2--2--2--2--2--2--2--|--3--3--3--3--3--3--3--3--|
--------------------------|--------------------------|
--------------------------|--------------------------|


 E E E E E E E E   E E E E E E E E
--------------------------|--------------------------|
--------------------------|--------------------------|
--------------------------|--------------------------|
--3--3--3--3--3--3--3--3--|--3--3--3--3--3--3--3--3--|
--------------------------|--------------------------|
--------------------------|--------------------------|


               (Vocals return)
               B
 E E E E E E E E   W          W
--------------------------|-------------------|-------------------|
--------------------------|-------------------|-------------------|
--------------------------|-------------------|-------------------|
--3--3--3--3--3--3--3--3--|-------------------|-------------------|
--------------------------|-------------------|-------------------|
--------------------------|--0----------------|--L----------------|


                     FAAAAAAR AWAAAAAAAAAY

 W          W           E E E E E E S S S S
-------------------|-------------------||-----------------------------|
-------------------|-------------------||-----------------------------|
-------------------|-------------------||*----------------------------|
-------------------|-------------------||*--2--4----------------------|
-------------------|-------------------||-----------------------------|
--L----------------|--L----------------||---------2--2--2--2--2-2-2-2-|


 E E E E E E S S S S  E E E E E E S S S S
----------------------------|----------------------------|
----------------------------|----------------------------|
----------------------------|----------------------------|
----------------------------|----------------------------|
----------------------------|--------1--------1----------|
--2--2--2--2--2--2--2-2-2-2-|--2--3-----2--3-----2-2-3-3-|


 E E E E E E S S S S   Q  E E Q  E E
-----------------------------||------------------------|
-----------------------------||------------------------|
----------------------------*||------------------------|
----------------------------*||------------------------|
--1--------1--------1-1------||-------------7----------|
-----2--3-----2--3------3-2--||--0----0--0-------0--0--|


 E E E E E E Q    E Q  E Q  E E   Q  E E E E E E
-------------------------|------------------------|-------------------------|
-------------------------|------------------------|-------------------------|
-------------------------|------------------------|-------------------------|
-------------------------|------------------------|-------------------------|
--------------7----------|--6--6----6--6----6--6--|--L----6--6--6--6--6--6--|
--L--0--0--0-----0--0----|------------------------|-------------------------|


  E E E E E E S S S S  E E E E E E S S S S
|-----------------------------|----------------------------|
|-----------------------------|----------------------------|
|*----------------------------|----------------------------|
|*--4--6----------------------|----------------------------|
|-----------------------------|----------------------------|
|---------4--4--4--4--4-4-4-4-|--4--4--4--4--4--4--4-4-4-4-|


 E E E E E E S S S S  E E E E E E S S S S
----------------------------|-----------------------------||
----------------------------|-----------------------------||
----------------------------|----------------------------*||
----------------------------|----------------------------*||
--------3--------3----------|--3--------3--------3-3------||
--4--5-----4--5-----4-4-5-5-|-----4--5-----4--5------5-4--||


Final Chorus


  S S S S S S S S E E E S S  S S S S Q  S S E S S E
--------------------------------|-----------------------------|
--------------------------------|-----------------------------|
*-------------------------------|-----------------------------|
*-------------------------------|-----------------------------|
--------------------------------|-----------------------------|
---2-2-2-2-2-2-2-2-2--2--L--2-2-|--2-2-2-2-2----2-2-4--2-2-4--|


 S S S S S S S S E E E S S  S S S S Q  S S E S S E
-------------------------------|-----------------------------|
-------------------------------|-----------------------------|
-------------------------------|-----------------------------|
-------------------------------|-----------------------------|
-------------------------------|-----------------------------|
--2-2-2-2-2-2-2-2-2--2--L--2-2-|--2-2-2-2-2----2-2-4--2-2-4--|


 S S E E S S E E S S E   S S E E S S E E S S E
-----------------------------|------------------------------||
-----------------------------|------------------------------||
-----------------------------|-----------------------------*||
-----------------------------|-----------------------------*||
--1-1-1--1--1-1-1--1--1-1-1--|--3-3-3--3--3-3-3--3--3-3-3---||
-----------------------------|------------------------------||


 E E Q  E E E E   E E Q  E Q.    E E Q  E E E E
-------------------------|-----------------------|-------------------------|
-------------------------|-----------------------|-------------------------|
-------------------------|-----------------------|-------------------------|
-------------------------|-----------------------|-------------------------|
--2--2--2----2--2-----2--|--2--2--2----4--4------|--2--2--2----2--2-----2--|
-------------------------|-----------------------|-------------------------|


 E E Q  E Q.    H    H      H    H
-----------------------|--------------------|--------------------|
-----------------------|--------------------|--------------------|
-----------------------|--------------------|--------------------|
-----------------------|--1--------1--------|--------------------|
--2--2--2----4--4------|--------------------|--------------------|
-----------------------|--------------------|--1--------1--------|


 E E Q  E E E E   E E Q  E Q.    E E Q  E E E E
-------------------------|-----------------------|-------------------------|
-------------------------|-----------------------|-------------------------|
-------------------------|-----------------------|-------------------------|
-------------------------|-----------------------|-------------------------|
--2--2--2----2--2-----2--|--2--2--2----4--4------|--2--2--2----2--2-----2--|
-------------------------|-----------------------|-------------------------|


             |----3----|  |----3----|
 E E Q  E Q.    Q  Q  Q  Q  Q  Q
-----------------------|--------------------------------|
-----------------------|--------------------------------|
-----------------------|--------------------------------|
-----------------------|--1----1----1----1----1----1----|
--2--2--2----4--4------|--------------------------------|
-----------------------|--------------------------------|


 |----3----|  |----3----|
 Q  Q  Q  Q  Q  Q    H.      E   H.      E
--------------------------------|------------------|------------------|
--------------------------------|------------------|------------------|
--------------------------------|------------------|------------------|
--3--------------3--------------|------------------|------------------|
--------------------------------|------------------|------------------|
-------1----1---------1----1----|--0------------0--|--7------------7--|


 E E E E E Q    E E E Q  E E   E E Q  E E E
----------------------|----------------------|----------------------|
----------------------|----------------------|----------------------|
----------------------|----------------------|----------------------|
--------6--9--8--6----|--L-------------------|----------------------|
--7--9----------------|-----9--7--6----4--2--|----------------------|
----------------------|----------------------|--5--4--2----5--4--2--|


 E E Q  E E E   E E Q  E E E   E E Q  E E E
----------------------|----------------------|----------------------|
----------------------|----------------------|----------------------|
----------------------|----------------------|----------------------|
----------------------|----------------------|----------------------|
----------------------|--2--0-------2--0-----|--2--0-------2--0-----|
--5--4--2----5--4--2--|--------2----------2--|--------2----------2--|


 E E Q  E E E   E E Q  E E E   E E Q  E E E
----------------------|----------------------|----------------------|
----------------------|----------------------|----------------------|
----------------------|----------------------|----------------------|
----------------------|----------------------|----------------------|
--3--0-------3--0-----|--3--0-------3--0-----|--5--0-------5--0-----|
--------2----------2--|--------2----------2--|--------2----------2--|


 E E Q  E E E   E E E E E E   E E E E E E
----------------------|--------------------|--------------------|
----------------------|--------------------|--------------------|
----------------------|--------------------|--------------------|
----------------------|--------------------|--------------------|
--5--0-------3--0-----|--------------------|--------------------|
--------2----------2--|--5--4--2--5--4--2--|--5--4--2--5--4--2--|


 E E E E E E   E E E E E E   E E E E E E
--------------------|--------------------|--------------------|
--------------------|--------------------|--------------------|
--------------------|--------------------|--------------------|
--------------------|--------------------|--------------------|
--2--0-----2--0-----|--2--0-----2--0-----|--3--0-----3--0-----|
--------2--------2--|--------2--------2--|--------2--------2--|


 E E E E E E   E E E E E E   E E E E E E
--------------------|--------------------|--------------------|
--------------------|--------------------|--------------------|
--------------------|--------------------|--------------------|
--------------------|--------------------|--------------------|
--3--0-----3--0-----|--5--0-----5--0-----|--5--0-----3--0-----|
--------2--------2--|--------2--------2--|--------2--------2--|


 E E E Q.    E E E Q.    E E E Q.    E E E Q.
------------------|------------------|------------------|------------------|
------------------|------------------|------------------|------------------|
------------------|------------------|------------------|------------------|
------------------|------------------|------------------|------------------|
------------------|------------------|--2--0------------|--2--0------------|
--5--4--2---------|--5--4--2---------|--------2---------|--------2---------|


 E E E Q.    E E E Q.    E E E Q.    E E E E E E
------------------|------------------|------------------|--------------------|
------------------|------------------|------------------|--------------------|
------------------|------------------|------------------|--------------------|
------------------|------------------|------------------|--------------------|
--3--0------------|--3--0------------|--5--0------------|--5--0-----3--0-----|
--------2---------|--------2---------|--------2---------|--------2--------2--|


 E E Q  E E E   E E Q  E E E   E E Q  E E E
----------------------|----------------------|----------------------|
----------------------|----------------------|----------------------|
----------------------|----------------------|----------------------|
----------------------|----------------------|----------------------|
----------------------|----------------------|--2--0-------2--0-----|
--5--4--2----5--4--2--|--5--4--2----5--4--2--|--------2----------2--|


 E E Q  E E E   E E Q  E E E   E E Q  E E E
----------------------|----------------------|----------------------|
----------------------|----------------------|----------------------|
----------------------|----------------------|----------------------|
----------------------|----------------------|----------------------|
--2--0-------2--0-----|--3--0-------3--0-----|--3--0-------3--0-----|
--------2----------2--|--------2----------2--|--------2----------2--|


 E E Q  E E E   E E Q  E E E   E E E E E E E E
----------------------|----------------------|--------------------------|
----------------------|----------------------|--------------------------|
----------------------|----------------------|--------------------------|
----------------------|----------------------|--------------------------|
--5--0-------5--0-----|--5--0-------3--0-----|--------1--2--4--2--5--4--|
--------2----------2--|--------2----------2--|--2--3--------------------|


 E E E E Q.    E E E E Q    Q  Q  Q    Q.   Q.
---------------------|-------------------|-----------------|----------------|
---------------------|-------------------|-----------------|----------------|
---------------------|-------------------|-----------------|----------------|
--2------------------|-------------------|-----------------|----------------|
-----5--4--2---------|--5--4--2--1-------|--2----1---------|----------------|
---------------------|-------------------|------------3----|--2------0------|


 H.       H.       Q.   Q.    H.
---------------|---------------|----------------|---------------||
---------------|---------------|----------------|---------------||
---------------|---------------|----------------|---------------||
---------------|---------------|----------------|---------------||
---------------|--1------------|--1-------------|---------------||
--L------------|---------------|---------3------|--2------------||



Duration 🏷Legend
---------------
W - whole
H - half
Q - quarter
E - 8th
S - 16th
T - 32nd
X - 64th
. - note dotted
|-n-| - n-tuplets


Tablature 🏷Legend
----------------
L - tied note
x - dead note
g - grace note
(n) - ghost note
> - accentuded note
NH - natural harmonic
AH - artificial harmonic
TH - tapped harmonic
SH - semi harmonic
PH - pitch harmonic
h - hammer on
p - pull off
b - bend
br - bendRelease
pb - preBend
pbr - preBendRelease
brb - bendReleaseBend
\n/ - tremolo bar dip
\n - tremolo bar dive
-/n - tremolo bar Release up
/n\ - tremolo bar inverted dip
/n - tremolo bar return
-\n - tremolo bar Release down
S - shift slide
s - legato slide
/ - slide into from below or out of upwards
\ - slide into from above or out of downwards
~ - vibrato
W - wide vibrato
tr - trill
TP - tremolo picking
T - tapping
S - slap
P - pop
< - fade in
^ - brush up
v - brush down

Almost there ...

Sign in to get your own page with links to favourite songs and more. You are just one click away...

Login with Facebook Login with Google