Log in

One click and you are in

Login with Facebook Login with Google

Why sign up and log in

Guitar Tabs Explorer
Pagans Mind bass tabs for Entrance stargate

Bass tabs with lyrics

Entrance: Stargate
                 Pagan's Mind


Intro
        S S S S E S S S E. S S S S  Q.   S S S S S S S S S S 3x
C||-------||--------------------------------|------------------------------||
G||-------||--------------------------------|------------------------------||
D||-------||*-------------------------------|-----------------------------*||
A||-------||*----------7------------------3-|--L------L-2-3-5-3-2-3-2-----*||
E||-------||---0-0-0-0----0-0-0-3---0-0-0---|-------------------------3-2--||
B||-------||--------------------------------|------------------------------||
 S S S S E S S S E. S S S S  W
-------------------------------|-------------------|
-------------------------------|-------------------|
-------------------------------|-------------------|
----------7--------------------|-------------------|
--0-0-0-0----0-0-0-3---0-0-0---|-------------------|
-----------------------------1-|--L----------------|


(0.15) Chug

 E E S S S S S S S S S S E   E E S S S S S S S S S S E
-------------------------------|-------------------------------|
-------------------------------|-------------------------------|
-------------------------------|-------------------------------|
-------------------------------|-------------------------------|
-------------------------------|-------------------------------|
--0--0--0-0---0-0---0-0---0-0--|--0--0--0-0---0-0---0-0---0-1--|

 E E S S S S S S S S S S E   E E S S S S E Q.
-------------------------------|--------------------------|
-------------------------------|--------------------------|
-------------------------------|--------------------------|
-------------------------------|--------------------------|
-------------------------------|--------------------------|
--0--0--0-0---0-0---0-0---0-0--|--0--0--0-0---0-0---------|


 E E S S S S S S S S S S E   E E S S S S S S S S S S E
-------------------------------|-------------------------------|
-------------------------------|-------------------------------|
-------------------------------|-------------------------------|
-------------------------------|-------------------------------|
-------------------------------|-------------------------------|
--0--0--0-0---0-0---0-0---0-0--|--0--0--0-0---0-0---0-0---0-1--|


 E E S S S S S S S S S S E   E E S S S S S S S S S S S S
-------------------------------|--------------------------------|
-------------------------------|--------------------------------|
-------------------------------|--------------------------------|
-------------------------------|--------------------------------|
-------------------------------|----------------7-7-7-7-7-7-7-7-|
--0--0--0-0---0-0---0-0---0-0--|--0--0--0-0---0-----------------|


 W          W          E E E E E E E E
-------------------|-------------------|--------------------------|
-------------------|-------------------|--------------------------|
-------------------|-------------------|--------------------------|
-------------------|-------------------|--------------------------|
--3----------------|--5----------------|--0--0--0--0--0--0--0--0--|
-------------------|-------------------|--------------------------|


 E E E E E E E E   E E E E E E E E
--------------------------|--------------------------|
--------------------------|--------------------------|
--------------------------|--------------------------|
--------------------5--7--|--------------------------|
--0--0--0--0--0--0--------|--0--0--0--0--0--0--0--0--|
--------------------------|--------------------------|


 E E E E E E E E   E E E E E E E E
--------------------------|--------------------------|
--------------------------|--------------------------|
--------------------------|--------------------------|
-----------------------5--|--7--7--7--7--7--7--7--7--|
--0--0--0--0--5--6--7-----|--------------------------|
--------------------------|--------------------------|


 E E E E E E E E   E E E E E E E E
--------------------------|--------------------------|
--------------------------|--------------------------|
--------------------------|--------------------------|
--5--5--5--5--5--5--5--5--|--4--4--4--4--4--4--4--4--|
--------------------------|--------------------------|
--------------------------|--------------------------|


              (0.51) Vocals enter


 E E E E E E E E   E E E E E E E E
--------------------------|--------------------------|
--------------------------|--------------------------|
--------------------------|--------------------------|
--3--3--3--3--3--2--------|--------------------------|
--------------------3--2--|--0--0--0--0--0--0--0--0--|
--------------------------|--------------------------|


 E E E E E E E E   E E E E E E E E
--------------------------|--------------------------|
--------------------------|--------------------------|
--------------------------|--------------------------|
-----------------------2--|--0--0--0--0--0--0--0--0--|
--0--0--0--0--0--2--3-----|--------------------------|
--------------------------|--------------------------|


 E E E E E E E E   E E E E E E E E
--------------------------|--------------------------|
--------------------------|--------------------------|
--------------------------|--------------------------|
--0--0--0--0--0-----0--2--|--3--3--3--3--3--3--3--3--|
-----------------3--------|--------------------------|
--------------------------|--------------------------|


 E E E E E E E E   E E E E E E E E
--------------------------|--------------------------|
--------------------------|--------------------------|
--------------------------|--------------------------|
--3--3--3--3--3--2--------|--------------------------|
--------------------3--0--|--1--1--1--1--1--1--1--1--|
--------------------------|--------------------------|

              (1.06) Prechorus 1

 E E E E E E E E   E E E E E E E E
--------------------------|--------------------------|
--------------------------|--------------------------|
--------------------------|--------------------------|
--------------------------|--------------------------|
--1--3--3--5--5--1--1--1--|--0--0--0--0--0--0--0--0--|
--------------------------|--------------------------|


 E E E E E E E E   E E E E E E E E
--------------------------|--------------------------|
--------------------------|--------------------------|
--------------------------|--------------------------|
--------------------------|--------------------------|
--0--0--0--0--0--0--0--0--|--------------------------|
--------------------------|--3--3--3--3--3--3--3--3--|


 E E E E E E E E   E E E E E E E E
--------------------------|--------------------------|
--------------------------|--------------------------|
--------------------------|--------------------------|
--------------------------|--------------------------|
--------------------------|--3--3--3--3--3--3--3--3--|
--3--3--3--3--3--3--3--3--|--------------------------|


 E E E E E E E E   E E E E E E E E
--------------------------|--------------------------|
--------------------------|--------------------------|
--------------------------|--------------------------|
--------------------------|--------------------------|
--3--3--3--3--3--3--0-----|--------------------------|
-----------------------3--|--1--1--1--1--1--1--1--1--|



 E E E E E E E E   E E S S S S S S S S S S E
--------------------------|-------------------------------|
--------------------------|-------------------------------|
--------------------------|-------------------------------|
--5--5--5--5--5--5--5--5--|-------------------------------|
--------------------------|-------------------------------|
--------------------------|--0--0--0-0---0-0---0-0---0-0--|


 E E S S S S S S S S S S E   E E S S S S S S S S S S E
-------------------------------|-------------------------------|
-------------------------------|-------------------------------|
-------------------------------|-------------------------------|
-------------------------------|-------------------------------|
-------------------------------|-------------------------------|
--0--0--0-0---0-0---0-0---0-1--|--0--0--0-0---0-0---0-0---0-0--|


               (1.30) Verse 2


 E E S S S S E Q.    E E E E E E E E
--------------------------|--------------------------|
--------------------------|--------------------------|
--------------------------|--------------------------|
--------------------------|--------------------------|
--------------------------|--0--0--0--0--0--0--0--0--|
--0--0--0-0---0-0---------|--------------------------|


 E E E E E E E E   E E E E E E E E
--------------------------|--------------------------|
--------------------------|--------------------------|
--------------------------|--------------------------|
-----------------------2--|--0--0--0--0--0--0--0--0--|
--0--0--0--0--0--2--3-----|--------------------------|
--------------------------|--------------------------|


 E E E E E E E E   E E E E E E E E
--------------------------|--------------------------|
--------------------------|--------------------------|
--------------------------|--------------------------|
--0--0--0--0--0-----0--2--|--3--3--3--3--3--3--3--3--|
-----------------3--------|--------------------------|
--------------------------|--------------------------|


 E E E E E E E E   E E E E E E E E
--------------------------|--------------------------|
--------------------------|--------------------------|
--------------------------|--------------------------|
--3--3--3--3--3--2--------|--------------------------|
--------------------3--0--|--1--1--1--1--1--1--1--1--|
--------------------------|--------------------------|


               (1.46) Prechorus 2

 E E E E E E E E   E E E E E E E E
--------------------------|--------------------------|
--------------------------|--------------------------|
--------------------------|--------------------------|
--------------------0-----|--------------------------|
--1--1--1--1--1--3-----1--|--0--0--0--0--0--0--0--0--|
--------------------------|--------------------------|


 E E E E E E E E   E E E E E E E E
--------------------------|--------------------------|
--------------------------|--------------------------|
--------------------------|--------------------------|
--------------------------|--------------------------|
--0--0--0--0--0--0--0--0--|-----2--2-----2--2-----2--|
--------------------------|--------------------------|


 E E E E E E E E   E E E E E E E E
--------------------------|--------------------------|
--------------------------|--------------------------|
--------------------------|--------------------------|
--------------------------|--------------------------|
--2-----2--2-----2--2-----|--3--3--3--3--3--3--3--3--|
--------------------------|--------------------------|


 E E E E E E E E   E E E E E E E E
--------------------------|--------------------------|
--------------------------|--------------------------|
--------------------------|--------------------------|
--------------------------|--------------------------|
--3--3--3--3--3--3--0-----|--------------------------|
-----------------------3--|--1--1--1--1--1--1--1--1--|


              (2.02) Chorus 1

 E E E E E E E E   S S S S S S S S S S S S S S S S
--------------------------|----------------------------------|
--------------------------|----------------------------------|
--------------------------|----------------------------------|
--------------------------|----------------------------------|
--------------------------|--1-1-1-1-1-1-1-1-1-1-1-1-1-1-1-1-|
--3--3--3--3--3--3--3--3--|----------------------------------|



 S S S S S S S S S S S S S S S S  E E S S S S S S S S S S E
----------------------------------|-------------------------------|
----------------------------------|-------------------------------|
----------------------------------|-------------------------------|
----------------------------------|-------------------------------|
--1-1-1-1-1-1-1-1-1-1-1-1-1-1-1-1-|-------------------------------|
----------------------------------|--0--0--0-0---0-0---0-0---0-0--|


 E E S S S S S S S S S S E   S S S S S S S S S S S S S S S S
-------------------------------|----------------------------------|
-------------------------------|----------------------------------|
-------------------------------|----------------------------------|
-------------------------------|----------------------------------|
-------------------------------|--1-1-1-1-1-1-1-1-1-1-1-1-1-1-1-1-|
--0--0--0-0---0-0---0-0---0-0--|----------------------------------|


 S S S S S S S S S S S S S S S S  E E S S S S S S S S S S E
----------------------------------|-------------------------------|
----------------------------------|-------------------------------|
----------------------------------|-------------------------------|
----------------------------------|-------------------------------|
--1-1-1-1-1-1-1-1-1-1-1-1-1-1-1-1-|--3--3--3-3---3-3---3-3---3-3--|
----------------------------------|-------------------------------|


 E E S S S S S S S S S S E   S S S S S S S S S S S S S S S S
-------------------------------|----------------------------------|
-------------------------------|----------------------------------|
-------------------------------|----------------------------------|
-------------------------------|----------------------------------|
--3--3--3-3---3-3---3-3---3-3--|--1-1-1-1-1-1-1-1-1-1-1-1-1-1-1-1-|
-------------------------------|----------------------------------|


 S S S S S S S S S S S S S S S S  E E S S S S S S S S S S E
----------------------------------|-------------------------------|
----------------------------------|-------------------------------|
----------------------------------|-------------------------------|
----------------------------------|-------------------------------|
--1-1-1-1-1-1-1-1-1-1-1-1-1-1-1-1-|-------------------------------|
----------------------------------|--0--0--0-0---0-0---0-0---0-0--|


 E E S S S S S S S S S S E   E E E E E E E E
-------------------------------|--------------------------|
-------------------------------|--------------------------|
-------------------------------|--------------------------|
-------------------------------|--------------------------|
-------------------------------|--3--3--3--3--3--3--3--3--|
--0--0--0-0---0-0---0-0---0-0--|--------------------------|


 E E E E E E E E   E E E E E E E E
--------------------------|--------------------------|
--------------------------|--------------------------|
--------------------------|--------------------------|
-----0--0--2--2-----------|--------------------------|
--3--------------3--3--3--|--4--4--4--4--4--4--4--4--|
--------------------------|--------------------------|


               (2.33) Back to verse

 E E E E E E E E   E E E E E E E E
--------------------------|--------------------------|
--------------------------|--------------------------|
--------------------------|--------------------------|
--------------------------|--------------------------|
--4--4--4--4--4--4--4--4--|--0--0--0--0--0--0--0--0--|
--------------------------|--------------------------|


 E E E E E E E E   E E E E E E E E
--------------------------|--------------------------|
--------------------------|--------------------------|
--------------------------|--------------------------|
--5--5--5--5--5--5--5--5--|--4--4--4--4--4--4--4--4--|
--------------------------|--------------------------|
--------------------------|--------------------------|


               (2.41) Verse 3


 E E E E E E E E   E E E E E E E E
--------------------------|--------------------------|
--------------------------|--------------------------|
--------------------------|--------------------------|
--3--3--3--3--3--2--------|--------------------------|
--------------------3--2--|--0--0--0--0--0--0--0--0--|
--------------------------|--------------------------|


 E E E E E E E E   E E E E E E E E
--------------------------|--------------------------|
--------------------------|--------------------------|
--------------------------|--------------------------|
-----------------------2--|--0--0--0--0--0--0--0--0--|
--0--0--0--0--0--2--3-----|--------------------------|
--------------------------|--------------------------|


 E E E E E E E E   E E E E E E E E
--------------------------|--------------------------|
--------------------------|--------------------------|
--------------------------|--------------------------|
--0--0--0--0--0-----0--2--|--3--3--3--3--3--3--3--3--|
-----------------3--------|--------------------------|
--------------------------|--------------------------|


 E E E E E E E E   E E E E E E E E
--------------------------|--------------------------|
--------------------------|--------------------------|
--------------------------|--------------------------|
--3--3--3--3--3--3--3--3--|--5--5--5--5--5--5--5--5--|
--------------------------|--------------------------|
--------------------------|--------------------------|


 E E E E E E E E   E E E E E E E E
--------------------------|--------------------------|
--------------------------|--------------------------|
--------------------------|--------------------------|
--5--2--2--0--0-----------|--------------------------|
-----------------3--2-----|--0--0--0--0--0--0--0--0--|
-----------------------3--|--------------------------|


 E E E E E E E E   E E E E E E E E
--------------------------|--------------------------|
--------------------------|--------------------------|
--------------------------|--------------------------|
-----------------------2--|--0--0--0--0--0--0--0--0--|
--0--0--0--0--0--2--3-----|--------------------------|
--------------------------|--------------------------|


 E E E E E E E E   E E E E E E E E
--------------------------|--------------------------|
--------------------------|--------------------------|
--------------------------|--------------------------|
--0--0--0--0--0-----0--2--|--3--3--3--3--3--3--3--3--|
-----------------3--------|--------------------------|
--------------------------|--------------------------|


 E E E E E E E E   E E E E E E E E
--------------------------|--------------------------|
--------------------------|--------------------------|
--------------------------|--------------------------|
--3--3--3--3--3--2--------|--------------------------|
--------------------3--0--|--1--1--1--1--1--1--1--1--|
--------------------------|--------------------------|


              (3.13) Prechorus 3

 E E E E E E E E   E E Q  Q.   E   H.      E E
--------------------------|-----------------------|---------------------|
--------------------------|-----------------------|---------------------|
--------------------------|-----------------------|---------------------|
--------------------0-----|--------------------5--|--L------------L--x--|
--1--1--1--1--1--3-----1--|--0--0--0--------------|---------------------|
--------------------------|-----------------------|---------------------|


 E E Q  Q.   E   E E E E E E E E   E E E E E E E E
-----------------------|--------------------------|--------------------------|
-----------------------|--------------------------|--------------------------|
-----------------------|--------------------------|--------------------------|
-----------------------|--------------------------|--------------------------|
--5--5--5--------------|--------------------------|--------------0--0--0--0--|
--------------------0--|-----0-----3-----3-----3--|--1--1--1--1--------------|


              (3.25) Chorus 2

 E E E E E E E E   S S S S S S S S S S S S S S S S
--------------------------|----------------------------------|
--------------------------|----------------------------------|
--------------------------|----------------------------------|
--------------0--0--0--0--|----------------------------------|
--2--2--2--2--------------|--1-1-1-1-1-1-1-1-1-1-1-1-1-1-1-1-|
--------------------------|----------------------------------|


 S S S S S S S S S S S S S S S S  E E S S S S S S S S S S E
----------------------------------|-------------------------------|
----------------------------------|-------------------------------|
----------------------------------|-------------------------------|
----------------------------------|-------------------------------|
--1-1-1-1-1-1-1-1-1-1-1-1-1-1-1-1-|-------------------------------|
----------------------------------|--0--0--0-0---0-0---0-0---0-0--|


 E E S S S S S S S S S S E   S S S S S S S S S S S S S S S S
-------------------------------|----------------------------------|
-------------------------------|----------------------------------|
-------------------------------|----------------------------------|
-------------------------------|----------------------------------|
-------------------------------|--1-1-1-1-1-1-1-1-1-1-1-1-1-1-1-1-|
--0--0--0-0---0-0---0-0---0-0--|----------------------------------|


 S S S S S S S S S S S S S S S S  E E S S S S S S S S S S E
----------------------------------|-------------------------------|
----------------------------------|-------------------------------|
----------------------------------|-------------------------------|
----------------------------------|-------------------------------|
--1-1-1-1-1-1-1-1-1-1-1-1-1-1-1-1-|--3--3--3-3---3-3---3-3---3-3--|
----------------------------------|-------------------------------|


 E E S S S S S S S S S S E   S S S S S S S S S S S S S S S S
-------------------------------|----------------------------------|
-------------------------------|----------------------------------|
-------------------------------|----------------------------------|
-------------------------------|----------------------------------|
--3--3--3-3---3-3---3-3---3-3--|--1-1-1-1-1-1-1-1-1-1-1-1-1-1-1-1-|
-------------------------------|----------------------------------|


 S S S S S S S S S S S S S S S S  E E S S S S S S S S S S E
----------------------------------|-------------------------------|
----------------------------------|-------------------------------|
----------------------------------|-------------------------------|
----------------------------------|-------------------------------|
--1-1-1-1-1-1-1-1-1-1-1-1-1-1-1-1-|-------------------------------|
----------------------------------|--0--0--0-0---0-0---0-0---0-0--|


 E E S S S S S S S S S S E   E E E E E E E E
-------------------------------|--------------------------|
-------------------------------|--------------------------|
-------------------------------|--------------------------|
-------------------------------|--------------------------|
-------------------------------|--3--3--3--3--3--3--3--3--|
--0--0--0-0---0-0---0-0---0-0--|--------------------------|


 E E E E E E E E   E E E E E E E E
--------------------------|--------------------------|
--------------------------|--------------------------|
--------------------------|--------------------------|
-----0--0--2--2-----------|--------------------------|
--3--------------3--3--3--|--4--4--4--4--4--4--4--4--|
--------------------------|--------------------------|


              (3.57) Bridge

 E E E E E E E E   H.      E S S  W
--------------------------|----------------------|-------------------|
--------------------------|----------------------|-------------------|
--------------------------|----------------------|-------------------|
--------------------------|------------------5-7-|--5----------------|
--4--4--4--4--4--4--4--4--|--0------------L------|-------------------|
--------------------------|----------------------|-------------------|


 W          E. E. E E. E. S S  H.      E E
-------------------|-------------------------|---------------------|
-------------------|-------------------------|---------------------|
-------------------|-------------------------|---------------------|
--4----------------|--3---2---0--2---0-------|---------------------|
-------------------|---------------------3-2-|--0------------L--7--|
-------------------|-------------------------|---------------------|


                 |----3----|        |----3----|
 Q.   Q.   Q    H    Q  Q  Q    H    Q  Q  Q
---------------------|--------------------------|--------------------------|
---------------------|--------------------------|--------------------------|
---------4------5----|--4--------L--------------|--------------------------|
--7------------------|----------------7----5----|---------------------5----|
---------------------|--------------------------|--5--------L----7---------|
---------------------|--------------------------|--------------------------|


      |----3----|         |----3----|
 H    Q  Q  Q    Q.   E Q  Q  Q
--------------------------|---------------------------|
--------------------------|---------------------------|
----------------4----5----|--7------4--L--------------|
--7--------L--------------|-----------------5---------|
--------------------------|----------------------7----|
--------------------------|---------------------------|


       Harm.
       NH   NH
 H     Q   Q    W          H.      E E
-----------<>5-----------|--L----------------|---------------------|
------------------<>4----|--L----------------|---------------------|
-------------------------|-------------------|---------------------|
--7----------------------|-------------------|---------------------|
-------------------------|-------------------|--0------------L--7--|
-------------------------|-------------------|---------------------|


                            |----3----|
 H    Q  Q    H.      E E   H    Q  Q  Q
---------------------|---------------------|--------------------------|
---------------------|---------------------|--------------------------|
-----------4----5----|--4------------L-----|-----------5----4---------|
--7------------------|------------------7--|--5------------------5----|
---------------------|---------------------|--------------------------|
---------------------|---------------------|--------------------------|


 H.      E E   H     H      E E E E E E E E
---------------------|---------------------|--------------------------|
---------------------|---------------------|--------------------------|
------------------2--|--0------------------|--------------------------|
--3------------L-----|-----------/2--------|--------------------------|
---------------------|---------------------|--0--0--0--0--0--0--0--0--|
---------------------|---------------------|--------------------------|



               (4.38) Guitar solo!

 E E E E E E E E   S S S S S S S S S S S S S S S S
--------------------------|----------------------------------|
--------------------------|----------------------------------|
--------------------------|----------------------------------|
--------------------------|----------------------------------|
--0--0--0--0--0--0--0--0--|--0---0-0-0---0-0-0---0-0-0---0-0-|
--------------------------|----------------------------------|


 S S S S S S S S S S S S S S S S  S S S S S S S S S S S S S S S S
----------------------------------|----------------------------------|
----------------------------------|----------------------------------|
----------------------------------|----------------------------------|
----------------------------------|----------------------------------|
--0---0-0-0---0-0-0---0-0-0---0-0-|----------------------------------|
----------------------------------|--3---3-3-3---3-3-3---3-3-3---3-3-|


 S S S S S S S S S S S S S S S S  S S S S S S S S S S S S S S S S
----------------------------------|----------------------------------|
----------------------------------|----------------------------------|
----------------------------------|----------------------------------|
----------------------------------|----------------------------------|
----------------------------------|--3---3-3-3---3-3-3---3-3-3---3-3-|
--3---3-3-3---3-3-3---3-3-3---3-3-|----------------------------------|


 S S S S S S S S S S S S S S S S  S S S S S S S S S S S S S S S S
----------------------------------|----------------------------------|
----------------------------------|----------------------------------|
----------------------------------|----------------------------------|
----------------------------------|--3---3-3-3---3-3-3---3-3-3---3-3-|
--3---3-3-3---3-3-3---3-3-3---3-3-|----------------------------------|
----------------------------------|----------------------------------|


                  .

 S S S S S S S S S S S S S S S S  S S S S S S S S S S S S S S S S
----------------------------------|----------------------------------|
----------------------------------|----------------------------------|
----------------------------------|----------------------------------|
--5---5-5-5---5-5-5---5-5-5---5-5-|----------------------------------|
----------------------------------|--0---0-0-0---0-0-0---0-0-0---0-0-|
----------------------------------|----------------------------------|


 S S S S S S S S S S S S S S S S  S S S S S S S S S S S S S S S S
----------------------------------|----------------------------------|
----------------------------------|----------------------------------|
----------------------------------|----------------------------------|
----------------------------------|----------------------------------|
--0---0-0-0---0-0-0---0-0-0---0-0-|----------------------------------|
----------------------------------|--3---3-3-3---3-3-3---3-3-3---3-3-|


 S S S S S S S S S S S S S S S S  S S S S S S S S S S S S S S S S
----------------------------------|----------------------------------|
----------------------------------|----------------------------------|
----------------------------------|----------------------------------|
----------------------------------|----------------------------------|
----------------------------------|--3---3-3-3---3-3-3---3-3-3---3-3-|
--3---3-3-3---3-3-3---3-3-3---3-3-|----------------------------------|


 S S S S S S S S S S S S S S S S  E E E E E E E E
----------------------------------|--------------------------|
----------------------------------|--------------------------|
----------------------------------|--------------------------|
----------------------------------|--3--3--3--3--3--3--3--3--|
--3---3-3-3---3-3-3---3-3-3---3-3-|--------------------------|
----------------------------------|--------------------------|

              (5.09) Chorus 3


 E E E E E E E E   S S S S S S S S S S S S S S S S
--------------------------|----------------------------------|
--------------------------|----------------------------------|
--------------------------|----------------------------------|
--5--5--5--5--5--5--5--5--|----------------------------------|
--------------------------|--1-1-1-1-1-1-1-1-1-1-1-1-1-1-1-1-|
--------------------------|----------------------------------|


 S S S S S S S S S S S S S S S S  E E S S S S S S S S S S E
----------------------------------|-------------------------------|
----------------------------------|-------------------------------|
----------------------------------|-------------------------------|
----------------------------------|-------------------------------|
--1-1-1-1-1-1-1-1-1-1-1-1-1-1-1-1-|-------------------------------|
----------------------------------|--0--0--0-0---0-0---0-0---0-0--|


 E E S S S S S S S S S S E   S S S S S S S S S S S S S S S S
-------------------------------|----------------------------------|
-------------------------------|----------------------------------|
-------------------------------|----------------------------------|
-------------------------------|----------------------------------|
-------------------------------|--1-1-1-1-1-1-1-1-1-1-1-1-1-1-1-1-|
--0--0--0-0---0-0---0-0---0-0--|----------------------------------|


 S S S S S S S S S S S S S S S S  E E S S S S S S S S S S E
----------------------------------|-------------------------------|
----------------------------------|-------------------------------|
----------------------------------|-------------------------------|
----------------------------------|-------------------------------|
--1-1-1-1-1-1-1-1-1-1-1-1-1-1-1-1-|--3--3--3-3---3-3---3-3---3-3--|
----------------------------------|-------------------------------|


 E E S S S S S S S S S S E   S S S S S S S S S S S S S S S S
-------------------------------|----------------------------------|
-------------------------------|----------------------------------|
-------------------------------|----------------------------------|
-------------------------------|----------------------------------|
--3--3--3-3---3-3---3-3---3-3--|--1-1-1-1-1-1-1-1-1-1-1-1-1-1-1-1-|
-------------------------------|----------------------------------|


 S S S S S S S S S S S S S S S S  E E S S S S S S S S S S E
----------------------------------|-------------------------------|
----------------------------------|-------------------------------|
----------------------------------|-------------------------------|
----------------------------------|-------------------------------|
--1-1-1-1-1-1-1-1-1-1-1-1-1-1-1-1-|--0--0--0-0---0-0---0-0---0-0--|
----------------------------------|-------------------------------|


 E E S S S S S S S S S S E   E E E E E E E E
-------------------------------|--------------------------|
-------------------------------|--------------------------|
-------------------------------|--------------------------|
-------------------------------|--------------------------|
--0--0--0-0---0-0---0-0---0-0--|--3--3--3--3--3--3--3--3--|
-------------------------------|--------------------------|


 E E E E E E E E   E E E E E E E E
--------------------------|--------------------------|
--------------------------|--------------------------|
--------------------------|--------------------------|
-----0--0--2--2-----------|--------------------------|
--3--------------3--3--3--|--4--4--4--4--4--4--4--4--|
--------------------------|--------------------------|


             (5.40) Outro [WAAAAAAAAAAAAAAAAAAAH!]


 E E E E E E E E    S S S S E S S S E. S S S S
--------------------------||--------------------------------|
--------------------------||--------------------------------|
--------------------------||*-------------------------------|
--------------------------||*----------7------------------3-|
--4--4--4--4--4--4--4--4--||---0-0-0-0----0-0-0-3---0-0-0---|
--------------------------||--------------------------------|


 Q.   S S S S S S S S S S 3x S S S S E S S S E. S S S S
------------------------------||--------------------------------|
------------------------------||--------------------------------|
-----------------------------*||--------------------------------|
--L------L-2-3-5-3-2-3-2-----*||----------7--------9---------10-|
-------------------------3-2--||--0-0-0-0----0-0-0-----0-0-0----|
------------------------------||--------------------------------|


 H.      E S S   S S S S S S S S S S S S S S S S
----------------------|----------------------------------------|
----------------------|------------7------7-9-7----------------|
------------------7-9-|--10-7-9-10---9-10-------10-9-7---------|
--L------------L------|--------------------------------10-9-10-|
----------------------|----------------------------------------|
----------------------|----------------------------------------|


 S S E H.
----------------------||
----------------------||
----------------------||
--7-7-----------------||
----------------------||
----------------------||



Duration 🏷Legend
---------------
W - whole
H - half
Q - quarter
E - 8th
S - 16th
T - 32nd
X - 64th
. - note dotted
|-n-| - n-tuplets


Tablature 🏷Legend
----------------
L - tied note
x - dead note
g - grace note
(n) - ghost note
> - accentuded note
NH - natural harmonic
AH - artificial harmonic
TH - tapped harmonic
SH - semi harmonic
PH - pitch harmonic
h - hammer on
p - pull off
b - bend
br - bendRelease
pb - preBend
pbr - preBendRelease
brb - bendReleaseBend
\n/ - tremolo bar dip
\n - tremolo bar dive
-/n - tremolo bar Release up
/n\ - tremolo bar inverted dip
/n - tremolo bar return
-\n - tremolo bar Release down
S - shift slide
s - legato slide
/ - slide into from below or out of upwards
\ - slide into from above or out of downwards
~ - vibrato
W - wide vibrato
tr - trill
TP - tremolo picking
T - tapping
S - slap
P - pop
< - fade in
^ - brush up

Almost there ...

Sign in to get your own page with links to favourite songs and more. You are just one click away...

Login with Facebook Login with Google