Log in

One click and you are in

Login with Facebook Login with Google

Why sign up and log in

Guitar Tabs Explorer
Pagans Mind bass tabs for Dimensions of fire

Bass tabs with lyrics

Dimensions of Fire
                 Pagan's Mind

I don't normally use repeats, but I put them here to tidy up the verses because they're quite repetitive.
Hopefully the endings 1-8 make sense - **s denote repeat sections. Sorry, Guitar Pro's ASCII export doesn't
do too well with advanced formatting!
               (0.01) Intro

   H    E  E  Q     E E E E E E E E
C||-------------------------||---------------------------|
G||-------------------------||---------------------------|
D||-------------------------||*--------------------------|
A||-------------------------||*--------8--7--------------|
E||--------------/7--12\----||---0--0--------0--0--0--0--|
B||-------------------------||---------------------------|


 E E E E E E E E   E E E E E E E E
--------------------------|--------------------------|
--------------------------|--------------------------|
--------------------------|--------------------------|
--------------------------|--------------------------|
--1--0--0--0--7--6-----6--|--L--0--1--0--0--0--0--0--|
--------------------------|--------------------------|


  E  E  E  S S E  E  E  E   E E E E E E E E
------------------------------------|--------------------------|
------------------------------------|--------------------------|
------------------------------------|--------------------------|
------------------------------------|--------------------------|
--12--12--12--12-12-12--12--12--12--|--0--0--1--0--0--0--0--0--|
------------------------------------|--------------------------|

 E E E E E E E E   E E E E E E E E
--------------------------|--------------------------|
--------------------------|--------------------------|
--------------------------|--------------------------|
--------------------------|--------------------------|
--1--0--0--0--7--6-----6--|--L--0--1--0--0--0--0--0--|
--------------------------|--------------------------|


                       (0.19) Verse 1

  S S E  E  S S E  E  S S E    E E E E E E E E
----------------------------------------||---------------------------|
----------------------------------------||---------------------------|
----------------------------------------||*--------------------------|
----------------------------------------||*--------------------------|
--10-12-12--12--10-12-12--12--10-12-12--||---0--0-----0-----0-----0--|
----------------------------------------||---------------------------|


    Endings 1,2,3,5,6,7.           Ending 4.       Ending 8.
 E E E E E E E E    E E E E E S S E E    H    H
---------------------------||----------------------------||--------------------|
---------------------------||----------------------------||--------------------|
--------------------------*||---------------------------*||--------------------|
--------------------------*||---------------------------*||--------------------|
-----0-----0-----0-----0---||-----0-----0---------5--3---||--------------------|
---------------------------||-----------------3-5--------||--3--------2--------|


(0.54) Chorus 1

  E.  S E  E  E.  S E  E   E.  S E  E  E.  S E E
----------------------------------|---------------------------------|
----------------------------------|---------------------------------|
----------------------------------|------------------------------7--|
--10---10-10--10--10---10-10--10--|--10---10-10--10--10---10-10-----|
----------------------------------|---------------------------------|
----------------------------------|---------------------------------|


 E. S E E E. S E E   E. S E E  E.  E. E
--------------------------|---------------------------|
--------------------------|---------------------------|
--8---8-8--8--8---8-8--8--|--8---8-8--8--12---10---8--|
--------------------------|---------------------------|
--------------------------|---------------------------|
--------------------------|---------------------------|


 E. S E E E. S E E   E. S E E E. S E E
--------------------------|--------------------------|
--------------------------|--------------------------|
--------------------------|--------------------------|
--------------------------|--------------------------|
--------------------------|--------------------------|
--4---4-4--4--4---4-4--4--|--4---4-4--4--4---4-4--4--|


 E E E E E E E E   E E E E E E E E
--------------------------|--------------------------|
--------------------------|--------------------------|
--------------------------|--------------------------|
--------------------------|--------------------------|
--------------------------|--------------------------|
--0--0--0--0--0--0--0--0--|--0--0--0--0--0--0--0--0--|


(1.11) Verse 2


                  Endings 1,2,3,5,6,7.
  E E E E E E E E   E E E E E E E E
|---------------------------|---------------------------||
|---------------------------|---------------------------||
|*--------------------------|--------------------------*||
|*--------------------------|--------------------------*||
|---0--0-----0-----0-----0--|-----0-----0-----0-----0---||
|---------------------------|---------------------------||

          Ending 4.       Ending 8.
 E E E E E S S E E    H    H
----------------------------||--------------------|
----------------------------||--------------------|
---------------------------*||--------------------|
---------------------------*||--------------------|
-----0-----0---------5--3---||--------------------|
-----------------3-5--------||--3--------2--------|


(1.47) Chorus 2

  E.  S E  E  E.  S E  E   E.  S E  E  E.  S E E
----------------------------------|---------------------------------|
----------------------------------|---------------------------------|
----------------------------------|------------------------------7--|
--10---10-10--10--10---10-10--10--|--10---10-10--10--10---10-10-----|
----------------------------------|---------------------------------|
----------------------------------|---------------------------------|


 E. S E E E. S E E   E. S E E  E.  E. E
--------------------------|---------------------------|
--------------------------|---------------------------|
--8---8-8--8--8---8-8--8--|--8---8-8--8--12---10---8--|
--------------------------|---------------------------|
--------------------------|---------------------------|
--------------------------|---------------------------|


 E. S E E E. S E E   E. S E E E. S E E
--------------------------|--------------------------|
--------------------------|--------------------------|
--------------------------|--------------------------|
--------------------------|--------------------------|
--------------------------|--------------------------|
--4---4-4--4--4---4-4--4--|--4---4-4--4--4---4-4--4--|


 E E E E E E E E   E E E E E E E E
--------------------------|--------------------------|
--------------------------|--------------------------|
--------------------------|--------------------------|
--------------------------|--------------------------|
--------------------------|--------------------------|
--0--0--0--0--0--0--0--0--|--0--0--0--0--0--0--0--0--|


(2.04) Verse 3

  E E E E E E E E   E E E E E E E E
|---------------------------|--------------------------|
|---------------------------|--------------------------|
|---------------------------|--------------------------|
|---------------------------|--------------------------|
|---------------------------|--------------------------|
|---1--1-----1-----1-----1--|--1--1-----1-----1-----1--|


 E E E E E E E E   E E E E E S S E E
--------------------------|---------------------------|
--------------------------|---------------------------|
--------------------------|---------------------------|
--------------------------|---------------------1-----|
--------------------------|-----------------1-3----3--|
--1--1-----1-----1-----1--|--1--1-----1--L------------|


 E E E E E E E E   E E E E E E E E
--------------------------|--------------------------|
--------------------------|--------------------------|
--------------------------|--------------------------|
--------------------------|--------------------------|
--------------------------|--------------------------|
--1--1-----1-----1-----1--|--1--1-----1-----1-----1--|


 E E E E E E E E   E E E E E S S E E
--------------------------|---------------------------|
--------------------------|---------------------------|
--------------------------|---------------------------|
--------------------------|---------------------1-----|
--------------------------|-----------------1-3----3--|
--1--1-----1-----1-----1--|--1--1-----1--L------------|


(2.21)

 E E E E E E E E E E E E   E E E E E E E E E E E E
--------------------------------------|--------------------------------------|
--------------------------------------|--------------------------------------|
--------------------------------------|--------------------------------------|
--1--1--1--1--1--1--1--1--1--1--1--1--|--1--1--1--1--1--1--1--1--1--1--1--1--|
--------------------------------------|--------------------------------------|
--------------------------------------|--------------------------------------|


 E E E E E E E E E E E E   E E E E E E   Q  Q
--------------------------------------|--------------------|------------|
--------------------------------------|--------------------|------------|
--------------------------------------|--------------------|------------|
--1--1--1--1--1--1--0--0--0--0--0--0--|--------------------|------------|
--------------------------------------|--4--4--4--4--4--4--|------------|
--------------------------------------|--------------------|--1----3----|


(2.35) Intro again

 E E E E E E E E   E E E E E E E E
--------------------------|--------------------------|
--------------------------|--------------------------|
--------------------------|--------------------------|
--------8--7--------------|--------------------------|
--0--0--------0--0--0--0--|--1--0--0--0--7--6-----6--|
--------------------------|--------------------------|


 E E E E E E E E   E E E E E E E E
--------------------------|--------------------------|
--------------------------|--------------------------|
--------------------------|--------------------------|
--------------------------|--------------------------|
--L--0--1--0--0--0--0--0--|--0--0--0--0--0--0--0--0--|
--------------------------|--------------------------|


 E E E E E E E E   E E E E E E E E
--------------------------|--------------------------|
--------------------------|--------------------------|
--------------------------|--------------------------|
--------8--7--------------|--------------------------|
--0--0-----------0-----0--|-----0-----0-----6-----6--|
--------------------------|--------------------------|


 E E E E E E E E   S S E  E  S S E  E  S S E
--------------------------|----------------------------------------|
--------------------------|----------------------------------------|
--------------------------|----------------------------------------|
--------------------------|----------------------------------------|
--L--0--1--0--0--0--0--0--|--10-12-12--12--10-12-12--12--10-12-12--|
--------------------------|----------------------------------------|


(2.52) Verse 4

                  Endings 1,2,3,5,6,7
  E E E E E E E E   E E E E E E E E  8x
|---------------------------|---------------------------||
|---------------------------|---------------------------||
|*--------------------------|--------------------------*||
|*--------------------------|--------------------------*||
|---0--0-----0-----0-----0--|-----0-----0-----0-----0---||
|---------------------------|---------------------------||

          Ending 4.       Ending 8.
 E E E E E S S E E    H    H
----------------------------||--------------------|
----------------------------||--------------------|
---------------------------*||--------------------|
---------------------------*||--------------------|
-----0-----0---------5--3---||--------------------|
-----------------3-5--------||--3--------2--------|


(3.28) Chorus 3

  E.  S E  E  E.  S E  E   E.  S E  E  E.  S E E
----------------------------------|---------------------------------|
----------------------------------|---------------------------------|
----------------------------------|------------------------------7--|
--10---10-10--10--10---10-10--10--|--10---10-10--10--10---10-10-----|
----------------------------------|---------------------------------|
----------------------------------|---------------------------------|


 E. S E E E. S E E   E. S E E  E.  E. E
--------------------------|---------------------------|
--------------------------|---------------------------|
--8---8-8--8--8---8-8--8--|--8---8-8--8--12---10---8--|
--------------------------|---------------------------|
--------------------------|---------------------------|
--------------------------|---------------------------|


 E. S E E E. S E E   E. S E E E. S E E
--------------------------|--------------------------|
--------------------------|--------------------------|
--------------------------|--------------------------|
--------------------------|--------------------------|
--------------------------|--------------------------|
--4---4-4--4--4---4-4--4--|--4---4-4--4--4---4-4--4--|


 E E E E E E E E   E E E E E E E E
--------------------------|--------------------------|
--------------------------|--------------------------|
--------------------------|--------------------------|
--------------------------|--------------------------|
--------------------------|--------------------------|
--0--0--0--0--0--0--0--0--|--0--0--0--0--0--0--0--0--|


(3.45) Verse 5

 E E E E E E E E   E E E E E E E E
--------------------------|--------------------------|
--------------------------|--------------------------|
--------------------------|--------------------------|
--------------------------|--------------------------|
--------------------------|--------------------------|
--1--1-----1-----1-----1--|--1--1-----1-----1-----1--|


 E E E E E E E E   E E E E E S S E E
--------------------------|---------------------------|
--------------------------|---------------------------|
--------------------------|---------------------------|
--------------------------|---------------------1-----|
--------------------------|-----------------1-3----3--|
--1--1-----1-----1-----1--|--1--1-----1--L------------|


 E E E E E E E E   E E E E E E E E
--------------------------|--------------------------|
--------------------------|--------------------------|
--------------------------|--------------------------|
--------------------------|--------------------------|
--------------------------|--------------------------|
--1--1-----1-----1-----1--|--1--1-----1-----1-----1--|


 E E E E E E E E   E E E E E S S E E
--------------------------|---------------------------|
--------------------------|---------------------------|
--------------------------|---------------------------|
--------------------------|---------------------1-----|
--------------------------|-----------------1-3----3--|
--1--1-----1-----1-----1--|--1--1-----1--L------------|

(4.03)

 E E E E E E E E E E E E   E E E E E E E E E E E E
--------------------------------------|--------------------------------------|
--------------------------------------|--------------------------------------|
--------------------------------------|--------------------------------------|
--1--1--1--1--1--1--1--1--1--1--1--1--|--1--1--1--1--1--1--1--1--1--1--1--1--|
--------------------------------------|--------------------------------------|
--------------------------------------|--------------------------------------|


 E E E E E E E E E E E E   E E E E E E   Q  Q
--------------------------------------|--------------------|------------|
--------------------------------------|--------------------|------------|
--------------------------------------|--------------------|------------|
--1--1--1--1--1--1--0--0--0--0--0--0--|--------------------|-------0----|
--------------------------------------|--4--4--4--4--4--4--|--3---------|
--------------------------------------|--------------------|------------|


(4.16) Bridge
 W          H    H      W
-------------------|--------------------|-------------------|
-------------------|--------------------|-------------------|
-------------------|--------------------|-------------------|
-------------------|--------------------|-------------------|
-------------------|--------------------|-------------------|
--0----------------|--L--------3--------|--4----------------|


 H    H      W          H    H
--------------------|-------------------|--------------------|
--------------------|-------------------|--------------------|
--------------------|-------------------|--------------------|
--------------------|-------------------|--------------------|
--------------------|-------------------|--------------------|
--L--------1--------|--0----------------|--L--------3--------|


 W          H    E E Q    W
-------------------|----------------------|-------------------|
-------------------|----------------------|-------------------|
-------------------|----------------------|-------------------|
-------------------|----------------------|-------------------|
-------------------|----------------------|-------------------|
--4----------------|--L--------1--1-------|--0----------------|


 H    H      W          H    H
--------------------|-------------------|--------------------|
--------------------|-------------------|--------------------|
--------------------|-------------------|--------------------|
--------------------|-------------------|--------------------|
--------------------|-------------------|--------------------|
--L--------3--------|--4----------------|--L--------1--------|


 W          H    H      W
-------------------|--------------------|-------------------|
-------------------|--------------------|-------------------|
-------------------|--------------------|-------------------|
-------------------|--------------------|-------------------|
-------------------|--------------------|-------------------|
--0----------------|--L--------3--------|--4----------------|


            (4.51) Guitar solo

 H    E E E E   E E E E E E E E   E E E E E E E E
-----------------------|--------------------------|--------------------------|
-----------------------|--------------------------|--------------------------|
-----------------------|--------------------------|--------------------------|
-----------------------|--------------------------|--------------------------|
-----------------------|--------------------------|-----------3--2-----------|
--L--------2--2--2--2--|--1--1--1--1--1--0--1--3--|--1--1--1--------3--0--3--|


 E E E E E E E E   E E E E E E E E
--------------------------|--------------------------|
--------------------------|--------------------------|
--------------------------|--------------------------|
--------------------------|--------------------------|
--0--0--0--0--0-----------|--0--0--0--0--3--2--0-----|
-----------------0--3--0--|-----------------------3--|


 E E E E E E E E   E E E E E E E E
--------------------------|--------------------------|
--------------------------|--------------------------|
--------------------------|--------------------------|
--------------------------|--------------------------|
--------------------------|-----------3--2-----------|
--1--1--1--1--1--0--1--3--|--1--1--1--------3--0--3--|


 E E E E E E E E   E E E E E E E E
--------------------------|--------------------------|
--------------------------|--------------------------|
--------------------------|--------------------------|
--------------------------|--------------------0--2--|
--0--0--0--0--0--0--0--0--|--0--2--2--2--3--3--------|
--------------------------|--------------------------|


 E E E E E E E E   E E E E E E E E
--------------------------|--------------------------|
--------------------------|--------------------------|
--------------------------|--------------------------|
--3--3--3--3--3--2--3--2--|--3--3--3--5--3--2--0-----|
--------------------------|-----------------------3--|
--------------------------|--------------------------|


 E E E E E E E E   E E E E E E E E
--------------------------|--------------------------|
--------------------------|--------------------------|
--------------------------|--------------------------|
--------------------------|--------------------------|
--0--0--0--0--0--0--0--0--|--0--0--0--0--0--2--3--0--|
--------------------------|--------------------------|


 E E E E E E E E   E E E E E E E E
--------------------------|--------------------------|
--------------------------|--------------------------|
--------------------------|--------------------------|
--------------------------|--------------------------|
--------------------------|-----------------------3--|
--1--1--1--0--1--1--1--0--|--1--1--1--0--1--0--1-----|


 E E E E E E E E   E E E E E E E E   H.      E E
--------------------------|--------------------------|---------------------|
--------------------------|--------------------------|---------------------|
--------------------------|--------------------------|---------------------|
--------------------------|--------------------0-----|---------------------|
--0--0--0--0--0--0--0--0--|--0--0--2--2--3--3-----3--|------------------3--|
--------------------------|--------------------------|--1------------------|


           (5.31) Keys solo

 H    H      H.      E E   H.      E S S
--------------------|---------------------|----------------------|
--------------------|---------------------|----------------------|
--------------------|---------------------|----------------------|
-----------5--------|--7---------------5--|--7---------------2-5-|
--------------------|---------------------|----------------------|
--1-----------------|---------------------|----------------------|


 H.      E E   H    Q  Q    H.      E E
---------------------|---------------------|---------------------|
---------------------|---------------------|---------------------|
---------------------|----------------5----|---------------------|
--3---------------2--|--3--------3---------|--7------------------|
---------------------|---------------------|------------------7--|
---------------------|---------------------|---------------------|


      |----3----|
 Q.   E Q  Q  Q    H.      E E   W
---------------------------|---------------------|-------------------|
---------------------------|---------------------|-------------------|
---------------------------|---------------------|-------------------|
-----------------0----2----|--3---------------2--|--3----------------|
--0------2--3--------------|---------------------|-------------------|
---------------------------|---------------------|-------------------|


                 |----3----|
 H.      E E   Q.   E Q  Q  Q    H.      E E
---------------------|---------------------------|---------------------|
---------------------|---------------------------|---------------------|
---------------------|---------5--4--------------|------------------5--|
---------------------|--7--------------7----5----|--3------------------|
--0---------------7--|---------------------------|---------------------|
---------------------|---------------------------|---------------------|


 |----3----|  |----3----|
 Q  Q  Q  Q  Q  Q    E E E E E E E E
--------------------------------|--------------------------|
--7----5----4----2--------------|--------------------------|
----------------------5----4----|--2-----------------------|
--------------------------------|--------------------------|
--------------------------------|-----0--0--0--0--0--0--0--|
--------------------------------|--------------------------|


              (6.01) Keys solo picks up

 E E E E E E E E   E S S S S S S E S S S S S S
--------------------------|--------------------------------|
--------------------------|--------------------------------|
--------------------------|--------------------------------|
--------------------------|--------------------------------|
--0--0--0--0--0--0--0--0--|--3--3-3-3-3---3-3--3-3-3-3---3-|
--------------------------|--------------------------------|


 E S S S S S S E S S S S S S  E S S S S S S E S S S S S S
--------------------------------|--------------------------------|
--------------------------------|--------------------------------|
--------------------------------|--------------------------------|
--------------------------------|--------------------------------|
--3--3-3-3-3---3-3--3-3-3-3---3-|--6--6-6-6-6---6-6--6-6-6-6---6-|
--------------------------------|--------------------------------|


 E S S S S S S E S S S S S S  E S S S S S S E S S S S S S
--------------------------------|--------------------------------|
--------------------------------|--------------------------------|
--------------------------------|--------------------------------|
--------------------------------|--------------------------------|
--6--6-6-6-6---6-6--6-6-6-6---6-|--------------------------------|
--------------------------------|--4--4-4-4-4---4-4--4-4-4-4---4-|


 E S S S S S S E S S E E   E E E E E E E E
------------------------------|--------------------------|
------------------------------|--------------------------|
------------------------------|--------------------------|
------------------------------|--------------------------|
------------------------------|--------------------------|
--4--4-4-4-4---4-4--4-4-4--4--|--0--0--0--0--0--0--0--0--|

              (6.18) Verse 6 [6!? What the hell]

 E E E E E E E E   E E E E E E E E
--------------------------|--------------------------|
--------------------------|--------------------------|
--------------------------|--------------------------|
--------------------------|--------------------------|
--------------------------|--------------------------|
--0--0--0--0--0--0--0--0--|--1--1-----1-----1-----1--|


 E E E E E E E E   E E E E E E E E
--------------------------|--------------------------|
--------------------------|--------------------------|
--------------------------|--------------------------|
--------------------------|--------------------------|
--------------------------|--------------------------|
--1--1-----1-----1-----1--|--1--1-----1-----1-----1--|


 E E E E E S S E E   E E E E E E E E
---------------------------|--------------------------|
---------------------------|--------------------------|
---------------------------|--------------------------|
---------------------1-----|--------------------------|
-----------------1-3----3--|--------------------------|
--1--1-----1--L------------|--1--1-----1-----1-----1--|


 E E E E E E E E   E E E E E E E E
--------------------------|--------------------------|
--------------------------|--------------------------|
--------------------------|--------------------------|
--------------------------|--------------------------|
--------------------------|--------------------------|
--1--1-----1-----1-----1--|--1--1-----1-----1-----1--|

                (6.36)

 E E E E E S S E E   E E E E E E E E E E E E
---------------------------|--------------------------------------|
---------------------------|--------------------------------------|
---------------------------|--------------------------------------|
---------------------1--3--|--1--1--1--1--1--1--1--1--1--1--1--1--|
-----------------1-3-------|--------------------------------------|
--1--1-----1--L------------|--------------------------------------|


 E E E E E E E E E E E E   E E E E E E E E E E E E
--------------------------------------|--------------------------------------|
--------------------------------------|--------------------------------------|
--------------------------------------|--------------------------------------|
--1--1--1--1--1--1--1--1--1--1--1--1--|--1--1--1--1--1--1--0--0--0--0--0--0--|
--------------------------------------|--------------------------------------|
--------------------------------------|--------------------------------------|

                  (6.48) Outro
 E E E E E E   Q  Q    W          H    E E E E
--------------------|------------|-------------------|-----------------------|
--------------------|------------|-------------------|-----------------------|
--------------------|------------|-------------------|-----------------------|
--------------------|------------|-------------------|-----------------------|
--4--4--4--4--4--4--|------------|-------------------|--------------7--0--6--|
--------------------|--1----3----|-------------------|-----------------------|


  E E E E E E E E   E E E E E E E E  7x Q  H.
|---------------------------|---------------------------||--------------------||
|---------------------------|---------------------------||--------------------||
|*--------------------------|--------------------------*||--------------------||
|*--------------------------|--------------------------*||--------------------||
|---L--0--0--0--0--0--0--0--|--0--0--0--0--0--7--0--6---||--L-----------------||
|---------------------------|---------------------------||--------------------||



Duration 🏷Legend
---------------
W - whole
H - half
Q - quarter
E - 8th
S - 16th
T - 32nd
X - 64th
. - note dotted
|-n-| - n-tuplets


Tablature 🏷Legend
----------------
L - tied note
x - dead note
g - grace note
(n) - ghost note
> - accentuded note
NH - natural harmonic
AH - artificial harmonic
TH - tapped harmonic
SH - semi harmonic
PH - pitch harmonic
h - hammer on
p - pull off
b - bend
br - bendRelease
pb - preBend
pbr - preBendRelease
brb - bendReleaseBend
\n/ - tremolo bar dip
\n - tremolo bar dive
-/n - tremolo bar Release up
/n\ - tremolo bar inverted dip
/n - tremolo bar return
-\n - tremolo bar Release down
S - shift slide
s - legato slide
/ - slide into from below or out of upwards
\ - slide into from above or out of downwards
~ - vibrato
W - wide vibrato
tr - trill
TP - tremolo picking
T - tapping
S - slap
P - pop
< - fade in
^ - brush up

Almost there ...

Sign in to get your own page with links to favourite songs and more. You are just one click away...

Login with Facebook Login with Google