Log in

One click and you are in

Login with Facebook Login with Google

Why sign up and log in

Guitar Tabs Explorer
Pagans Mind bass tabs for Celestial entrance album

Celestial Entrance Album bass tab - Pagans Mind

Pagans Mind bass tabs for Celestial entrance album

Bass tabs with lyrics

Hey everyone, this is my album tab of Pagan's Mind's second album, Celestial Entrance. I've tabbed out all
the individual songs, but thought a single collated edition of the whole thing would be useful. This one's
all about aliens and mysticism! Enjoy!

Track listing:
1. THROUGH OSIRIS' EYES
2. ENTRANCE STARGATE
3. ...OF EPIC QUESTIONS
4. DIMENSIONS OF FIRE
5. DREAMSCAPE LUCIDITY
6. THE SEVEN SACRED PROMISES
7. BACK TO THE MAGIC OF CHILDHOOD
8. IN BRILLIANT WHITE LIGHT (TACET)
9. AEGEAN SHORES
10. THE PROPHECY OF PLEIADES


               1. THROUGH OSIRIS' EYES

(1.24) Intro
   E Q.   Q.   S S  E Q.   S S S S S S S S  E Q.   H
C||-----------------------|----------------------------|---------------------|
G||-----------------------|----------------------------|---------------------|
D||-----------------------|----------------------------|---------------------|
A||-----------------------|----------------------------|---------------------|
E||-----------------------|----------------------------|---------------------|
B||--3------------------3-|--3-----------3---3---3---3-|--3------------------|


 S T T S S S S S S S T T S S E E   S S S S S S S S S S S S S S S S
------------------------------------|----------------------------------|
------------------------------------|----------------------------------|
------------------------------------|----------------------------------|
--5-6-5-4---4-----------------------|----------------------------------|
----------6---6-5-3-2-2-3-2---------|--0-0-0-0-0-0-0-0-0-0-0-0-0-0-0-0-|
----------------------------4-3-----|----------------------------------|


 S S S S S S S S S S E  E S S  S S S S S S S S S S S S S S S S
----------------------------------|----------------------------------|
----------------------------------|----------------------------------|
----------------------------------|----------------------------------|
----------------------12--11--8-7-|----------------------------------|
--0-0-0-0-0-0-0-0-0-0-------------|--0-0-0-0-0-0-0-0-0-0-0-0-0-0-0-0-|
----------------------------------|----------------------------------|


 S S S S S S S S S S S S S S S S  S S S S S S S S S S S S S S S S
----------------------------------|----------------------------------|
----------------------------------|----------------------------------|
----9-----8-----7-----6-----------|----------------------------------|
--7---7-6---6-5---5-4---4-3-2-1-0-|----------------------------------|
----------------------------------|----------------------------------|
----------------------------------|--3-3-3-3-3-3-3-3-3-3-3-3-3-3-3-3-|


 S S S S S S S S S S E E S S  S S S S S S S S S S S S S S S S
--------------------------------|----------------------------------|
--------------------------------|----------------------------------|
--------------------------------|----------------------------------|
--------------------------------|----------------------------------|
----------------------3--2------|----------------------------------|
--3-3-3-3-3-3-3-3-3-3-------4-3-|--L-3-3-3-3-3-3-3-3-3-3-3-3-3-3-3-|


 S S S T T S S S S S S S S S S S S  S S S S S S S S S S S S S S S S
------------------------------------|----------------------------------|
------------------------------------|----------------------------------|
------4-4-5-4-----------4-5-7-5-8-7-|----------------------------------|
--5-6---------6-5-3-5-6-------------|----------------------------------|
------------------------------------|--0-0-0-0-0-0-0-0-0-0-0-0-0-0-0-0-|
------------------------------------|----------------------------------|


 S S S S S S S S S S E  E S S  S S S S S S S S S S S S S S S S
----------------------------------|----------------------------------|
----------------------------------|----------------------------------|
----------------------------------|----------------------------------|
----------------------12--11--8-7-|----------------------------------|
--0-0-0-0-0-0-0-0-0-0-------------|--0-0-0-0-0-0-0-0-0-0-0-0-0-0-0-0-|
----------------------------------|----------------------------------|

                  (2.04) Awyeah


 S S S S S S S S S S S S S S S S  E. E. E H
----------------------------------|----------------------|
----------------------------------|----------------------|
----9-----8-----7-----6-----------|----------------------|
--7---7-6---6-5---5-4---4-3-2-1-0-|----------------------|
----------------------------------|----------------------|
----------------------------------|--3---3---3--L--------|


 E. E. E H      E. E. E H      H    H
----------------------|----------------------|--------------------|
----------------------|----------------------|--------------------|
----------------------|----------------------|--------------------|
----------------------|------5---------------|--------------------|
----------------------|----------------------|--3--------1--------|
--3---3---3--L--------|--3-------3--L--------|--------------------|


 E. E. E H      E. E. E H      E. E. E H
----------------------|----------------------|----------------------|
----------------------|----------------------|----------------------|
----------------------|----------------------|----------------------|
------5---------------|----------1--L--------|--5-------------------|
----------------------|------1---------------|------5---------------|
--3-------3--L--------|--3-------------------|----------3--L--------|


 Q.   S S S S S S S S S S  E. S E. S S S E E S S
-----------------------------|----------------------------|
-----------------------------|----------------------------|
-----------7-8-5-7---5-------|----------------------------|
-------------------8---7-8-7-|----------------------------|
-----------------------------|----------------------------|
--8------L-------------------|--3---3-----1-3-1-3-----1-3-|


 E. S E. S S S E E E   E. S E. S S S E Q
---------------------------|--------------------------|
---------------------------|--------------------------|
---------------------------|--------------------------|
---------------------------|--------------------------|
---------------------------|--------------------------|
--3---3-----1-3-1-3--3--1--|--3---3-----1-3-1-3--3----|


 Q.   S S S S S S S S S S  S S S S S S S S S S S S S S S S
-----------------------------|----------------------------------|
-----------------------------|----------------------------------|
-----------------------------|----------------------------------|
-----------------------------|----------------------------------|
-----------5-6-3-5-----------|----------------------------------|
--8------L---------6-7-5-6-5-|--1-3-3-1-3-3-1-3-3-1-3-3---1-3-3-|


 S S S S S S S S S S S S S S S S  S S S S S S S S S S S S S S S S
----------------------------------|----------------------------------|
----------------------------------|----------------------------------|
----------------------------------|----------------------------------|
----------------------------------|----------------------------------|
----------------------------------|----------------------------------|
--1-3-3-1-3-3-1-3-3-1-3-3---1-3-3-|--1-3-3-1-3-3-1-3-3-1-3-3---1-3-3-|


            (2.48) to 9/8

 H    H      H     H    E   H.      E. S S S
--------------------|------------------------|-------------------------|
--------------------|------------------------|-------------------------|
--------------------|------------------------|-------------------------|
--------------------|------------------------|-------------------------|
--3-----------------|--8\--------------------|-------------------4-4-4-|
-----------2--------|------------------------|-------------------------|


 S S S S S S S S S S S S S S S S S S  S S S S S S S S S S S S S S S S S S
--------------------------------------|--------------------------------------|
--------------------------------------|--------------------------------------|
--------------------------------------|--------------------------------------|
--3-3-3-3---3-3-3-3---3-3-3-3---3-3-3-|--3-3-3-3---3-3-3-3---3-3-3-3---3-3-3-|
--------------------------------------|--------------------------------------|
--------------------------------------|--------------------------------------|


 S S S S S S S S S S S S S S S S S S  S S S S S S S S S S S S S S S S S S
--------------------------------------|--------------------------------------|
--------------------------------------|--------------------------------------|
--------------------------------------|--------------------------------------|
--3-3-3-3---3-3-3-3---3-3-3-3---3-3-3-|--3-3-3-3---3-3-3-3---3-3-3-3---3-3-3-|
--------------------------------------|--------------------------------------|
--------------------------------------|--------------------------------------|


 S S S S S S S S S S S S S S S S S S  S S S S S S S S S S S S S S S S S S
--------------------------------------|--------------------------------------|
--------------------------------------|--------------------------------------|
--------------------------------------|--------------------------------------|
--------------------------------------|--------------------------------------|
--------------------------------------|--------------------------------------|
--3-3-3-3---3-3-3-3---3-3-3-3---3-3-3-|--3-3-3-3---3-3-3-3---3-3-3-3---3-3-3-|


 S S S S S S S S S S S S S S S S S S  S S S S S S S S S S S S S E.
--------------------------------------|--------------------------------|
--------------------------------------|--------------------------------|
--------------------------------------|--------------------------------|
--3-3-3-3---3-3-3-3---3-3-3-3---3-3-3-|--3-3-3-3---3-3-3-3---3-3-3-3---|
--------------------------------------|--------------------------------|
--------------------------------------|--------------------------------|


(3.19) Verse 1

 S S S S S S S S S S S S S S E   S S S S S S S S S S S S S E.
---------------------------------|---------------------------------|
---------------------------------|---------------------------------|
---------------------------------|---------------------------------|
--5-5-5-5---5-5-5-5---5-5-5-5----|--5-5-5-5---5-5-5-5---5-5-5-5\---|
---------------------------------|---------------------------------|
---------------------------------|---------------------------------|


 S S S S S S S S S S S S S S E   S S S S S S S S S S S S S S S S
---------------------------------|----------------------------------|
---------------------------------|----------------------------------|
---------------------------------|----------------------------------|
---------------------------------|----------------------------------|
--0-0-0-0---0-0-0-0---0-0-0-0----|--0-0-0-0---0-0-0-0---0-0-0---0-0-|
---------------------------------|----------------------------------|


 S S S S S S S S S S S S S S E   S S S S S S S S S S S S S E.
---------------------------------|---------------------------------|
---------------------------------|---------------------------------|
---------------------------------|---------------------------------|
--5-5-5-5---5-5-5-5---5-5-5-5----|--5-5-5-5---5-5-5-5---5-5-5-5\---|
---------------------------------|---------------------------------|
---------------------------------|---------------------------------|


 S S S S S S S S S S S S S S E   S S S S S S S S S S S S S E.
---------------------------------|--------------------------------|
---------------------------------|--------------------------------|
---------------------------------|--------------------------------|
---------------------------------|--------------------------------|
--0-0-0-0---0-0-0-0---0-0-0-0----|--0-0-0-0---0-0-0-0---0-0-0-1---|
---------------------------------|--------------------------------|


 S S S S S S S S S S S S S S S S S S  S S S S S S S S S S S S S S S S S S
--------------------------------------|--------------------------------------|
--------------------------------------|--------------------------------------|
--------------------------------------|--------------------------------------|
--5-5-5-5---4-4-4-4---3-3-3-3---2-2-2-|--5-5-5-5---4-4-4-4---3-3-3-3---2-2-2-|
--------------------------------------|--------------------------------------|
--------------------------------------|--------------------------------------|


 S S S S S S S S S S S S S S S S  S S S S S S S S S S S S S S S S  S S E
----------------------------------|----------------------------------|---------|
----------------------------------|----------------------------------|---------|
----------------------------------|----------------------------------|---------|
----------------------------------|----------------------------------|---------|
----------------------------------|----------------------------------|---------|
--3-3-3-3-2-2-2-2-1-1-1-1-0-0-0-0-|--3-3-3-3-2-2-2-2-1-1-1-1-0-0-0-0-|--0-0-0--|


(3.53) Prechorus 1

 S S S S S S S S S S S S S S S S  S S S S S S S S S S S S S S S S
----------------------------------|----------------------------------|
----------------------------------|----------------------------------|
----------------------------------|----------------------------------|
----------------------------------|------------------0-0-0-0-2-2-----|
--2-2-0-2-L-0-2-2-0-2-L-0-2-2-0-2-|--L-0-2-2-0-2-L-0-------------0-0-|
----------------------------------|----------------------------------|


 S S S S S S S S S S S S S S S S  S S S S S S S S S S S S S S S S
----------------------------------|----------------------------------|
----------------------------------|----------------------------------|
----------------------------------|----------------------------------|
----------------------------------|------------------0-0-0-0-0-0-0-0-|
--2-2-0-2-L-0-2-2-0-2-L-0-2-2-0-2-|--3-3-3-3-3-3-3-3-----------------|
----------------------------------|----------------------------------|


(4.03) Chorus 1

 H    Q.   E   H    Q.   E   H    Q.   E
---------------------|---------------------|---------------------|
---------------------|---------------------|---------------------|
---------------------|---------------------|---------------------|
--2--------0---------|---------------------|---------------------|
------------------3--|--L--------2------0--|--L--------3------2--|
---------------------|---------------------|---------------------|


 H    Q  Q    H    Q.   E   H    Q.   E
---------------------|---------------------|---------------------|
---------------------|---------------------|---------------------|
---------------------|---------------------|---------------------|
-----------1---------|--2--------0---------|---------------------|
--L-------------2----|------------------3--|--L--------2------0--|
---------------------|---------------------|---------------------|


 H    H      S S S S S S S S S S S S S S S S
--------------------|----------------------------------|
--------------------|----------------------------------|
--------------------|----------------------------------|
--------------------|----------------------------------|
--L--------3--------|--2-2-2-2-2-2-2-2-2-2-2-2-2-2-2-2-|
--------------------|----------------------------------|


 S S S S S S S S S S S S S S E   S S S S S S S S S S S S S S S S
---------------------------------|----------------------------------|
---------------------------------|----------------------------------|
---------------------------------|----------------------------------|
------------------------------0--|--2-2-2-2-2-2-2-2-2-2-2-2-2-2-2-2-|
--2-2-2-2-2-2-2-2-3-3-3-3-3-3----|----------------------------------|
---------------------------------|----------------------------------|

                     (4.33) Verse 2

 S S S S S S S S S S S S S S S S     S S S S S S S S S S S S S S E
----------------------------------|-----|---------------------------------|
----------------------------------|-----|---------------------------------|
----------------------------0-2-5-|-----|---------------------------------|
--3-3-3-3-3-3-3-3-3-3-3-3-3-------|-----|--5-5-5-5---5-5-5-5---5-5-5-5----|
----------------------------------|-----|---------------------------------|
----------------------------------|-----|---------------------------------|


 S S S S S S S S S S S S S E.   S S S S S S S S S S S S S S E
---------------------------------|---------------------------------|
---------------------------------|---------------------------------|
---------------------------------|---------------------------------|
--5-5-5-5---5-5-5-5---5-5-5-5\---|---------------------------------|
---------------------------------|--0-0-0-0---0-0-0-0---0-0-0-0----|
---------------------------------|---------------------------------|


 S S S S S S S S S S S S S S S S  S S S S S S S S S S S S S S E
----------------------------------|---------------------------------|
----------------------------------|---------------------------------|
----------------------------------|---------------------------------|
----------------------------------|--5-5-5-5---5-5-5-5---5-5-5-5----|
--0-0-0-0---0-0-0-0---0-0-0---0-0-|---------------------------------|
----------------------------------|---------------------------------|


 S S S S S S S S S S S S S E.   S S S S S S S S S S S S S S E
---------------------------------|---------------------------------|
---------------------------------|---------------------------------|
---------------------------------|---------------------------------|
--5-5-5-5---5-5-5-5---5-5-5-5\---|---------------------------------|
---------------------------------|--0-0-0-0---0-0-0-0---0-0-0-0----|
---------------------------------|---------------------------------|


 S S S S S S S S S S S S S E.   S S S S S S S S S S S S S S S S S S
--------------------------------|--------------------------------------|
--------------------------------|--------------------------------------|
--------------------------------|--------------------------------------|
--------------------------------|--5-5-5-5---4-4-4-4---3-3-3-3---2-2-2-|
--0-0-0-0---0-0-0-0---0-0-0-1---|--------------------------------------|
--------------------------------|--------------------------------------|


                     |--3--| |--3--| |--3--| |--3--|
 S S S S S S S S S S S S S S S S S S  E E E E E E E E E E E E
--------------------------------------|--------------------------------------|
--------------------------------------|--------------------------------------|
--------------------------------------|--------------------------------------|
--5-5-5-5---4-4-4-4---3-3-3-3---2-2-2-|--------------------------------------|
--------------------------------------|--------------------------------------|
--------------------------------------|--3--3--3--2--2--2--1--1--1--0--0--0--|


                    (5.07) Chorus 2

 |--3--| |--3--| |--3--| |--3--|
 E E E E E E E E E E E E   H    Q.   E
--------------------------------------|---------------------|
--------------------------------------|---------------------|
--------------------------------------|---------------------|
--------------------------------------|--2--------0---------|
--------------------------------------|------------------3--|
--3--3--3--2--2--2--1--1--1--0--0--0--|---------------------|


 H    Q.   E   H    Q.   E   H    Q  Q
---------------------|---------------------|---------------------|
---------------------|---------------------|---------------------|
---------------------|---------------------|---------------------|
---------------------|---------------------|-----------1---------|
--L--------2------0--|--L--------3------2--|--L-------------2----|
---------------------|---------------------|---------------------|


 H    Q.   E   H    Q.   E   H    H
---------------------|---------------------|--------------------|
---------------------|---------------------|--------------------|
---------------------|---------------------|--------------------|
--2--------0---------|---------------------|--------------------|
------------------3--|--L--------2------0--|--L--------3--------|
---------------------|---------------------|--------------------|


 S S S S S S S S S S S S S S S S  S S S S S S S S S S S S S S S S
----------------------------------|----------------------------------|
----------------------------------|----------------------------------|
----------------------------------|----------------------------------|
----------------------------------|----------------------------------|
--2-2-2-2-2-2-2-2-2-2-2-2-2-2-2-2-|--0-0-0-0-0-0-0-0-0-0-0-0-0-0-0-0-|
----------------------------------|----------------------------------|


 S S S S S S S S S S S S S S S S  S S S S S S S S S S S S S S S S
----------------------------------|----------------------------------|
----------------------------------|----------------------------------|
----------------------------------|----------------------------------|
----------------------------------|----------------------------------|
----------------------------------|----------------------------------|
--3-3-3-3-3-3-3-3-3-3-3-3-3-3-3-3-|--1-1-1-1-1-1-1-1-1-1-1-1-1-1-1-1-|


 T T S S S S S S S S S S S S S S S  T T S S S S S S S S S S S S S S S
------------------------------------|------------------------------------|
------------------------------------|------------------------------------|
------------------------------------|------------------------------------|
------------------------------------|------------------------------------|
--2-2-2-2-2-2-2-2-2-2-2-2-2-2-2-2-2-|--0-0-0-0-0-0-0-0-0-0-0-0-0-0-0-0-0-|
------------------------------------|------------------------------------|

                   (5.44) Bridge - Solo

 T T S S S S S S S S S S S S S S S  E E H.
------------------------------------|---------------------|
------------------------------------|---------------------|
------------------------------------|---------------------|
------------------------------------|--3--3---------------|
------------------------------------|---------------------|
--3-3-3-3-3-3-3-3-3-3-3-3-3-3-3-3-3-|---------------------|


 E E H.       E E H.       E E Q  Q  S E.
---------------------|---------------------|------------------------|
---------------------|---------------------|------------------------|
---------------------|---------------------|------------------------|
--3--3---------------|--7--7---------------|--7--7--------------5---|
---------------------|---------------------|------------------------|
---------------------|---------------------|------------------------|


 E E H.       E E H.       E E H.
---------------------|---------------------|---------------------|
---------------------|---------------------|---------------------|
---------------------|---------------------|---------------------|
--3--3---------------|--3--3---------------|---------------------|
---------------------|---------------------|--0--0---------------|
---------------------|---------------------|---------------------|


 E E Q  Q  S E.   E E Q  E E Q    E E Q  E E Q
------------------------|------------------------|------------------------|
------------------------|------------------------|------------------------|
------------------------|------------------------|------------------------|
------------------------|------------------------|------------------------|
--0--0------------------|------------------------|------------------------|
--------------------3---|--1--1-------1--1-------|--1--1-------1--1-------|


 E E Q  E E Q    E E Q  E E E S S  E E Q  E E Q
------------------------|--------------------------|------------------------|
------------------------|--------------------------|------------------------|
------------------------|--------------------------|------------------------|
------------------------|------------------------2-|--3--3-------3--3-------|
------------------------|-------------------2--3---|------------------------|
--2--2-------2--2-------|--2--2-------2--5---------|------------------------|


 E E Q  E E Q    E E Q  E E Q    E E Q  E S S S E.
------------------------|------------------------|--------------------------|
------------------------|------------------------|--------------------------|
------------------------|------------------------|--------------------------|
--3--3-------3--3-------|--4--4-------4--4-------|--4--4-------4--4-4-4-2---|
------------------------|------------------------|--------------------------|
------------------------|------------------------|--------------------------|


(6.26) Descent to Osiris

 S S S S S S S S S S S S S S S S  S S S S S S S S S S S S S S S S
----------------------------------|----------------------------------|
----------------------------------|----------------------------------|
----------------------------------|----------------------------------|
--0-0-0-0-0-0-0-0-0-0-0-0-0-0-0-0-|--0-0-0-0-0-0-0-0-0-0-0-0-0-0-0-0-|
----------------------------------|----------------------------------|
----------------------------------|----------------------------------|


 S S S S S S S S S S S S S S S S  S S S S T T S S T T S S S S S S S S
----------------------------------|--------------------------------------|
----------------------------------|--------------------------------------|
----------------------------------|--------------------------------------|
--0-0-0-0-0-0-0-0-0-0-0-0-0-0-0-0-|--0-1-4-5-4-5-4-1-4-5-4-1-4-5-7-5-4-1-|
----------------------------------|--------------------------------------|
----------------------------------|--------------------------------------|


               |--3--|
 S T T S S S S S S S T T S S E E E   H    H
---------------------------------------|--------------------|
---------------------------------------|--------------------|
--7-8-7-6---7--------------------------|--------------------|
----------8---8-7-5-4-4-5-4---4--------|--------------------|
----------------------------6----6--5--|--3-----------------|
---------------------------------------|-----------4--------|


          (6.44)

 W          E E E E E E E E   E E E E E E E S S
-------------------|--------------------------|---------------------------|
-------------------|--------------------------|---------------------------|
-------------------|--------------------------|---------------------------|
-------------------|--------------------------|---------------------------|
-------------------|--------------------------|---------------------------|
--L----------------|--3--3--3--3--3--3--3--3--|--3--3--3--3--3--3--3--3-3-|


 E E E E E E E E   E E E E E E E S S
--------------------------|---------------------------|
--------------------------|---------------------------|
--------------------------|---------------------------|
--------------------------|---------------------------|
--0--0--0--0--0--0--0--0--|--0--0--0--0--0--0--2--0---|
--------------------------|-------------------------2-|


 E E E E E E E E   E E E E E E S S S S
--------------------------|----------------------------|
--------------------------|----------------------------|
--------------------------|----------------------------|
--------------------------|----------------------------|
--------------------------|------------------------2-5-|
--3--3--3--3--3--3--3--3--|--3--3--3--3--3--3--3-5-----|


 S S E E E E E E E   E E E E E E E E
---------------------------|--------------------------|
---------------------------|--------------------------|
---------------------------|--------------------------|
---------------------------|--------------------------|
--5-4-0--0--0--0--0--0--0--|--0--0--0--0--0--0--0--2--|
---------------------------|--------------------------|


 E S S E S S E S S E S S  E S S E S S E S S E S S
------------------------------|------------------------------|
------------------------------|------------------------------|
------------------------------|------------------------------|
------------------------------|------------------------------|
------------------------------|------------------------------|
-----3-3----3-3----3-3----3-3-|-----3-3----3-3----3-3----3-3-|


 E S S E S S E S S E S S  E S S E S S E S S S S S S
------------------------------|-------------------------------|
------------------------------|-------------------------------|
------------------------------|-------------------------------|
------------------------------|-------------------------------|
-----0-0----0-0----0-0----0-0-|-----0-0----0-0----0-0---1-1-1-|
------------------------------|-------------------------------|


(7.14) Verse 3

 S S S S S S S S S S S S S S E   S S S S S S S S S S S S S E.
---------------------------------|---------------------------------|
---------------------------------|---------------------------------|
---------------------------------|---------------------------------|
--5-5-5-5---5-5-5-5---5-5-5-5----|--5-5-5-5---5-5-5-5---5-5-5-5\---|
---------------------------------|---------------------------------|
---------------------------------|---------------------------------|


 S S S S S S S S S S S S S S E   S S S S S S S S S S S S S E.
---------------------------------|--------------------------------|
---------------------------------|--------------------------------|
---------------------------------|--------------------------------|
---------------------------------|--------------------------------|
--0-0-0-0---0-0-0-0---0-0-0-0----|--0-0-0-0---0-0-0-0---0-0-0-1---|
---------------------------------|--------------------------------|


 S S S S S S S S S S S S S S S S S S  S S S S S S S S S S S S S S S S S S
--------------------------------------|--------------------------------------|
--------------------------------------|--------------------------------------|
--------------------------------------|--------------------------------------|
--5-5-5-5---4-4-4-4---3-3-3-3---2-2-2-|--5-5-5-5---4-4-4-4---3-3-3-3---2-2-2-|
--------------------------------------|--------------------------------------|
--------------------------------------|--------------------------------------|


 S S S S S S S S S S S S S S S S  S S S S S S S S S S S S S S S S  S S E
----------------------------------|----------------------------------|---------|
----------------------------------|----------------------------------|---------|
----------------------------------|----------------------------------|---------|
----------------------------------|----------------------------------|---------|
----------------------------------|----------------------------------|---------|
--3-3-3-3-2-2-2-2-1-1-1-1-0-0-0-0-|--3-3-3-3-2-2-2-2-1-1-1-1-0-0-0-0-|--0-0-0--|


 S S S S S S S S S S S S S S S S  S S S S S S S S S S S S S S S S
----------------------------------|----------------------------------|
----------------------------------|----------------------------------|
----------------------------------|----------------------------------|
----------------------------------|------------------0-0-0-0-2-2-----|
--2-2-0-2-L-0-2-2-0-2-L-0-2-2-0-2-|--L-0-2-2-0-2-L-0-------------0-0-|
----------------------------------|----------------------------------|


 S S S S S S S S S S S S S S S S  S S S S S S S S S S S S S S S S
----------------------------------|----------------------------------|
----------------------------------|----------------------------------|
----------------------------------|----------------------------------|
----------------------------------|------------------0-0-0-0-0-0-0-0-|
--2-2-0-2-L-0-2-2-0-2-L-0-2-2-0-2-|--3-3-3-3-3-3-3-3-----------------|
----------------------------------|----------------------------------|

(7.48) Chorus 3

 H    Q.   E   H    Q.   E   Q.   S S Q.   E
---------------------|---------------------|-----------------------|
---------------------|---------------------|-----------------------|
---------------------|---------------------|-----------------------|
--2--------0---------|---------------------|-----------------------|
------------------3--|--L--------2------0--|--L------0-2-3------2--|
---------------------|---------------------|-----------------------|


 H    Q  Q    Q.   S S Q.   E   Q.   S S Q.   E
---------------------|-----------------------|-----------------------|
---------------------|-----------------------|-----------------------|
---------------------|-----------------------|-----------------------|
-----------1---------|--2--------2-0---------|-----------------------|
--L-------------2----|---------3----------3--|--L------0-3-2------0--|
---------------------|-----------------------|-----------------------|

                      (8.09) Chorus 4
 H    Q.   E   H    Q  Q    H    Q.   E
---------------------|---------------------|---------------------|
---------------------|---------------------|---------------------|
---------------------|---------------------|---------------------|
-----------0---------|-----------1---------|--2--------0---------|
--L---------------2--|--L-------------2----|------------------3--|
---------------------|---------------------|---------------------|


 H    Q.   E   Q.   S S Q.   E   H    Q  Q
---------------------|-----------------------|---------------------|
---------------------|-----------------------|---------------------|
---------------------|-----------------------|---------------------|
---------------------|-----------------------|-----------1---------|
--L--------2------0--|--L------0-2-3------2--|--L-------------2----|
---------------------|-----------------------|---------------------|


 EEEEEEEEEEEEEEEEEEEEEEEEEEEEEYES

 H    E. E. E   H    E. E. E   Q  S S S S H
----------------------|----------------------|------------------------|
----------------------|----------------------|------------------------|
----------------------|----------------------|-------2-0--------------|
--2--------0---0------|----------------------|-----------2-0----------|
-------------------3--|--L--------2---2---0--|--L------------3--------|
----------------------|----------------------|------------------------|


(8.27) Outro

 S S S S S S S S S S S S S S S S  S S S S S S S S S S S S S S S S
----------------------------------|----------------------------------|
----------------------------------|----------------------------------|
----------------------------------|----------------------------------|
----------------------------------|----------------------------------|
--2-2-2-2-2-2-2-2-2-2-2-2-2-2-2-2-|--0-0-0-0-0-0-0-0-0-0-0-0-0-0-0-0-|
----------------------------------|----------------------------------|


 S S S S S S S S S S S S S S S S  S S S S S S S S S S S S S S S S
----------------------------------|----------------------------------|
----------------------------------|----------------------------------|
----------------------------------|----------------------------------|
----------------------------------|----------------------------------|
----------------------------------|----------------------------------|
--3-3-3-3-3-3-3-3-3-3-3-3-3-3-3-3-|--1-1-1-1-1-1-1-1-1-1-1-1-1-1-1-1-|


 T T S S S S S S S S S S S S S S S  T T S S S S S S S S S S S S S S S
------------------------------------|------------------------------------|
------------------------------------|------------------------------------|
------------------------------------|------------------------------------|
------------------------------------|------------------------------------|
--2-2-2-2-2-2-2-2-2-2-2-2-2-2-2-2-2-|--0-0-0-0-0-0-0-0-0-0-0-0-0-0-0-0-0-|
------------------------------------|------------------------------------|


 T T S S S S S S S S S S S S S S S  S S S S S S S S S S S S S S S S
------------------------------------|-----------------------------------|----|
------------------------------------|-----------------------------------|----|
------------------------------------|-----------------------------------|----|
------------------------------------|----10-----9-----8-----7-----------|----|
------------------------------------|--8----8-7---7-6---6-5---5-4-3-2-1-|----|
--3-3-3-3-3-3-3-3-3-3-3-3-3-3-3-3-3-|-----------------------------------|----|


 W          E E H.
-------------------|---------------------||
-------------------|---------------------||
-------------------|---------------------||
-------------------|---------------------||
--3----------------|--2--2---------------||
-------------------|---------------------||








               2. ENTRANCE STARGATE


Intro
        S S S S E S S S E. S S S S  Q.   S S S S S S S S S S 3x
C||-------||--------------------------------|------------------------------||
G||-------||--------------------------------|------------------------------||
D||-------||*-------------------------------|-----------------------------*||
A||-------||*----------7------------------3-|--L------L-2-3-5-3-2-3-2-----*||
E||-------||---0-0-0-0----0-0-0-3---0-0-0---|-------------------------3-2--||
B||-------||--------------------------------|------------------------------||


 S S S S E S S S E. S S S S  W
-------------------------------|-------------------|
-------------------------------|-------------------|
-------------------------------|-------------------|
----------7--------------------|-------------------|
--0-0-0-0----0-0-0-3---0-0-0---|-------------------|
-----------------------------1-|--L----------------|


(0.15) Chug

 E E S S S S S S S S S S E   E E S S S S S S S S S S E
-------------------------------|-------------------------------|
-------------------------------|-------------------------------|
-------------------------------|-------------------------------|
-------------------------------|-------------------------------|
-------------------------------|-------------------------------|
--0--0--0-0---0-0---0-0---0-0--|--0--0--0-0---0-0---0-0---0-1--|


 E E S S S S S S S S S S E   E E S S S S E Q.
-------------------------------|--------------------------|
-------------------------------|--------------------------|
-------------------------------|--------------------------|
-------------------------------|--------------------------|
-------------------------------|--------------------------|
--0--0--0-0---0-0---0-0---0-0--|--0--0--0-0---0-0---------|


 E E S S S S S S S S S S E   E E S S S S S S S S S S E
-------------------------------|-------------------------------|
-------------------------------|-------------------------------|
-------------------------------|-------------------------------|
-------------------------------|-------------------------------|
-------------------------------|-------------------------------|
--0--0--0-0---0-0---0-0---0-0--|--0--0--0-0---0-0---0-0---0-1--|


 E E S S S S S S S S S S E   E E S S S S S S S S S S S S
-------------------------------|--------------------------------|
-------------------------------|--------------------------------|
-------------------------------|--------------------------------|
-------------------------------|--------------------------------|
-------------------------------|----------------7-7-7-7-7-7-7-7-|
--0--0--0-0---0-0---0-0---0-0--|--0--0--0-0---0-----------------|


 W          W          E E E E E E E E
-------------------|-------------------|--------------------------|
-------------------|-------------------|--------------------------|
-------------------|-------------------|--------------------------|
-------------------|-------------------|--------------------------|
--3----------------|--5----------------|--0--0--0--0--0--0--0--0--|
-------------------|-------------------|--------------------------|


 E E E E E E E E   E E E E E E E E
--------------------------|--------------------------|
--------------------------|--------------------------|
--------------------------|--------------------------|
--------------------5--7--|--------------------------|
--0--0--0--0--0--0--------|--0--0--0--0--0--0--0--0--|
--------------------------|--------------------------|


 E E E E E E E E   E E E E E E E E
--------------------------|--------------------------|
--------------------------|--------------------------|
--------------------------|--------------------------|
-----------------------5--|--7--7--7--7--7--7--7--7--|
--0--0--0--0--5--6--7-----|--------------------------|
--------------------------|--------------------------|


 E E E E E E E E   E E E E E E E E
--------------------------|--------------------------|
--------------------------|--------------------------|
--------------------------|--------------------------|
--5--5--5--5--5--5--5--5--|--4--4--4--4--4--4--4--4--|
--------------------------|--------------------------|
--------------------------|--------------------------|


              (0.51) Vocals enter


 E E E E E E E E   E E E E E E E E
--------------------------|--------------------------|
--------------------------|--------------------------|
--------------------------|--------------------------|
--3--3--3--3--3--2--------|--------------------------|
--------------------3--2--|--0--0--0--0--0--0--0--0--|
--------------------------|--------------------------|


 E E E E E E E E   E E E E E E E E
--------------------------|--------------------------|
--------------------------|--------------------------|
--------------------------|--------------------------|
-----------------------2--|--0--0--0--0--0--0--0--0--|
--0--0--0--0--0--2--3-----|--------------------------|
--------------------------|--------------------------|


 E E E E E E E E   E E E E E E E E
--------------------------|--------------------------|
--------------------------|--------------------------|
--------------------------|--------------------------|
--0--0--0--0--0-----0--2--|--3--3--3--3--3--3--3--3--|
-----------------3--------|--------------------------|
--------------------------|--------------------------|


 E E E E E E E E   E E E E E E E E
--------------------------|--------------------------|
--------------------------|--------------------------|
--------------------------|--------------------------|
--3--3--3--3--3--2--------|--------------------------|
--------------------3--0--|--1--1--1--1--1--1--1--1--|
--------------------------|--------------------------|

              (1.06) Prechorus 1

 E E E E E E E E   E E E E E E E E
--------------------------|--------------------------|
--------------------------|--------------------------|
--------------------------|--------------------------|
--------------------------|--------------------------|
--1--3--3--5--5--1--1--1--|--0--0--0--0--0--0--0--0--|
--------------------------|--------------------------|


 E E E E E E E E   E E E E E E E E
--------------------------|--------------------------|
--------------------------|--------------------------|
--------------------------|--------------------------|
--------------------------|--------------------------|
--0--0--0--0--0--0--0--0--|--------------------------|
--------------------------|--3--3--3--3--3--3--3--3--|


 E E E E E E E E   E E E E E E E E
--------------------------|--------------------------|
--------------------------|--------------------------|
--------------------------|--------------------------|
--------------------------|--------------------------|
--------------------------|--3--3--3--3--3--3--3--3--|
--3--3--3--3--3--3--3--3--|--------------------------|


 E E E E E E E E   E E E E E E E E
--------------------------|--------------------------|
--------------------------|--------------------------|
--------------------------|--------------------------|
--------------------------|--------------------------|
--3--3--3--3--3--3--0-----|--------------------------|
-----------------------3--|--1--1--1--1--1--1--1--1--|



 E E E E E E E E   E E S S S S S S S S S S E
--------------------------|-------------------------------|
--------------------------|-------------------------------|
--------------------------|-------------------------------|
--5--5--5--5--5--5--5--5--|-------------------------------|
--------------------------|-------------------------------|
--------------------------|--0--0--0-0---0-0---0-0---0-0--|


 E E S S S S S S S S S S E   E E S S S S S S S S S S E
-------------------------------|-------------------------------|
-------------------------------|-------------------------------|
-------------------------------|-------------------------------|
-------------------------------|-------------------------------|
-------------------------------|-------------------------------|
--0--0--0-0---0-0---0-0---0-1--|--0--0--0-0---0-0---0-0---0-0--|


               (1.30) Verse 2


 E E S S S S E Q.    E E E E E E E E
--------------------------|--------------------------|
--------------------------|--------------------------|
--------------------------|--------------------------|
--------------------------|--------------------------|
--------------------------|--0--0--0--0--0--0--0--0--|
--0--0--0-0---0-0---------|--------------------------|


 E E E E E E E E   E E E E E E E E
--------------------------|--------------------------|
--------------------------|--------------------------|
--------------------------|--------------------------|
-----------------------2--|--0--0--0--0--0--0--0--0--|
--0--0--0--0--0--2--3-----|--------------------------|
--------------------------|--------------------------|


 E E E E E E E E   E E E E E E E E
--------------------------|--------------------------|
--------------------------|--------------------------|
--------------------------|--------------------------|
--0--0--0--0--0-----0--2--|--3--3--3--3--3--3--3--3--|
-----------------3--------|--------------------------|
--------------------------|--------------------------|


 E E E E E E E E   E E E E E E E E
--------------------------|--------------------------|
--------------------------|--------------------------|
--------------------------|--------------------------|
--3--3--3--3--3--2--------|--------------------------|
--------------------3--0--|--1--1--1--1--1--1--1--1--|
--------------------------|--------------------------|


               (1.46) Prechorus 2

 E E E E E E E E   E E E E E E E E
--------------------------|--------------------------|
--------------------------|--------------------------|
--------------------------|--------------------------|
--------------------0-----|--------------------------|
--1--1--1--1--1--3-----1--|--0--0--0--0--0--0--0--0--|
--------------------------|--------------------------|


 E E E E E E E E   E E E E E E E E
--------------------------|--------------------------|
--------------------------|--------------------------|
--------------------------|--------------------------|
--------------------------|--------------------------|
--0--0--0--0--0--0--0--0--|-----2--2-----2--2-----2--|
--------------------------|--------------------------|


 E E E E E E E E   E E E E E E E E
--------------------------|--------------------------|
--------------------------|--------------------------|
--------------------------|--------------------------|
--------------------------|--------------------------|
--2-----2--2-----2--2-----|--3--3--3--3--3--3--3--3--|
--------------------------|--------------------------|


 E E E E E E E E   E E E E E E E E
--------------------------|--------------------------|
--------------------------|--------------------------|
--------------------------|--------------------------|
--------------------------|--------------------------|
--3--3--3--3--3--3--0-----|--------------------------|
-----------------------3--|--1--1--1--1--1--1--1--1--|


              (2.02) Chorus 1

 E E E E E E E E   S S S S S S S S S S S S S S S S
--------------------------|----------------------------------|
--------------------------|----------------------------------|
--------------------------|----------------------------------|
--------------------------|----------------------------------|
--------------------------|--1-1-1-1-1-1-1-1-1-1-1-1-1-1-1-1-|
--3--3--3--3--3--3--3--3--|----------------------------------|



 S S S S S S S S S S S S S S S S  E E S S S S S S S S S S E
----------------------------------|-------------------------------|
----------------------------------|-------------------------------|
----------------------------------|-------------------------------|
----------------------------------|-------------------------------|
--1-1-1-1-1-1-1-1-1-1-1-1-1-1-1-1-|-------------------------------|
----------------------------------|--0--0--0-0---0-0---0-0---0-0--|


 E E S S S S S S S S S S E   S S S S S S S S S S S S S S S S
-------------------------------|----------------------------------|
-------------------------------|----------------------------------|
-------------------------------|----------------------------------|
-------------------------------|----------------------------------|
-------------------------------|--1-1-1-1-1-1-1-1-1-1-1-1-1-1-1-1-|
--0--0--0-0---0-0---0-0---0-0--|----------------------------------|


 S S S S S S S S S S S S S S S S  E E S S S S S S S S S S E
----------------------------------|-------------------------------|
----------------------------------|-------------------------------|
----------------------------------|-------------------------------|
----------------------------------|-------------------------------|
--1-1-1-1-1-1-1-1-1-1-1-1-1-1-1-1-|--3--3--3-3---3-3---3-3---3-3--|
----------------------------------|-------------------------------|


 E E S S S S S S S S S S E   S S S S S S S S S S S S S S S S
-------------------------------|----------------------------------|
-------------------------------|----------------------------------|
-------------------------------|----------------------------------|
-------------------------------|----------------------------------|
--3--3--3-3---3-3---3-3---3-3--|--1-1-1-1-1-1-1-1-1-1-1-1-1-1-1-1-|
-------------------------------|----------------------------------|


 S S S S S S S S S S S S S S S S  E E S S S S S S S S S S E
----------------------------------|-------------------------------|
----------------------------------|-------------------------------|
----------------------------------|-------------------------------|
----------------------------------|-------------------------------|
--1-1-1-1-1-1-1-1-1-1-1-1-1-1-1-1-|-------------------------------|
----------------------------------|--0--0--0-0---0-0---0-0---0-0--|


 E E S S S S S S S S S S E   E E E E E E E E
-------------------------------|--------------------------|
-------------------------------|--------------------------|
-------------------------------|--------------------------|
-------------------------------|--------------------------|
-------------------------------|--3--3--3--3--3--3--3--3--|
--0--0--0-0---0-0---0-0---0-0--|--------------------------|


 E E E E E E E E   E E E E E E E E
--------------------------|--------------------------|
--------------------------|--------------------------|
--------------------------|--------------------------|
-----0--0--2--2-----------|--------------------------|
--3--------------3--3--3--|--4--4--4--4--4--4--4--4--|
--------------------------|--------------------------|


               (2.33) Back to verse

 E E E E E E E E   E E E E E E E E
--------------------------|--------------------------|
--------------------------|--------------------------|
--------------------------|--------------------------|
--------------------------|--------------------------|
--4--4--4--4--4--4--4--4--|--0--0--0--0--0--0--0--0--|
--------------------------|--------------------------|


 E E E E E E E E   E E E E E E E E
--------------------------|--------------------------|
--------------------------|--------------------------|
--------------------------|--------------------------|
--5--5--5--5--5--5--5--5--|--4--4--4--4--4--4--4--4--|
--------------------------|--------------------------|
--------------------------|--------------------------|


               (2.41) Verse 3


 E E E E E E E E   E E E E E E E E
--------------------------|--------------------------|
--------------------------|--------------------------|
--------------------------|--------------------------|
--3--3--3--3--3--2--------|--------------------------|
--------------------3--2--|--0--0--0--0--0--0--0--0--|
--------------------------|--------------------------|


 E E E E E E E E   E E E E E E E E
--------------------------|--------------------------|
--------------------------|--------------------------|
--------------------------|--------------------------|
-----------------------2--|--0--0--0--0--0--0--0--0--|
--0--0--0--0--0--2--3-----|--------------------------|
--------------------------|--------------------------|


 E E E E E E E E   E E E E E E E E
--------------------------|--------------------------|
--------------------------|--------------------------|
--------------------------|--------------------------|
--0--0--0--0--0-----0--2--|--3--3--3--3--3--3--3--3--|
-----------------3--------|--------------------------|
--------------------------|--------------------------|


 E E E E E E E E   E E E E E E E E
--------------------------|--------------------------|
--------------------------|--------------------------|
--------------------------|--------------------------|
--3--3--3--3--3--3--3--3--|--5--5--5--5--5--5--5--5--|
--------------------------|--------------------------|
--------------------------|--------------------------|


 E E E E E E E E   E E E E E E E E
--------------------------|--------------------------|
--------------------------|--------------------------|
--------------------------|--------------------------|
--5--2--2--0--0-----------|--------------------------|
-----------------3--2-----|--0--0--0--0--0--0--0--0--|
-----------------------3--|--------------------------|


 E E E E E E E E   E E E E E E E E
--------------------------|--------------------------|
--------------------------|--------------------------|
--------------------------|--------------------------|
-----------------------2--|--0--0--0--0--0--0--0--0--|
--0--0--0--0--0--2--3-----|--------------------------|
--------------------------|--------------------------|


 E E E E E E E E   E E E E E E E E
--------------------------|--------------------------|
--------------------------|--------------------------|
--------------------------|--------------------------|
--0--0--0--0--0-----0--2--|--3--3--3--3--3--3--3--3--|
-----------------3--------|--------------------------|
--------------------------|--------------------------|


 E E E E E E E E   E E E E E E E E
--------------------------|--------------------------|
--------------------------|--------------------------|
--------------------------|--------------------------|
--3--3--3--3--3--2--------|--------------------------|
--------------------3--0--|--1--1--1--1--1--1--1--1--|
--------------------------|--------------------------|


              (3.13) Prechorus 3

 E E E E E E E E   E E Q  Q.   E   H.      E E
--------------------------|-----------------------|---------------------|
--------------------------|-----------------------|---------------------|
--------------------------|-----------------------|---------------------|
--------------------0-----|--------------------5--|--L------------L--x--|
--1--1--1--1--1--3-----1--|--0--0--0--------------|---------------------|
--------------------------|-----------------------|---------------------|


 E E Q  Q.   E   E E E E E E E E   E E E E E E E E
-----------------------|--------------------------|--------------------------|
-----------------------|--------------------------|--------------------------|
-----------------------|--------------------------|--------------------------|
-----------------------|--------------------------|--------------------------|
--5--5--5--------------|--------------------------|--------------0--0--0--0--|
--------------------0--|-----0-----3-----3-----3--|--1--1--1--1--------------|


              (3.25) Chorus 2

 E E E E E E E E   S S S S S S S S S S S S S S S S
--------------------------|----------------------------------|
--------------------------|----------------------------------|
--------------------------|----------------------------------|
--------------0--0--0--0--|----------------------------------|
--2--2--2--2--------------|--1-1-1-1-1-1-1-1-1-1-1-1-1-1-1-1-|
--------------------------|----------------------------------|


 S S S S S S S S S S S S S S S S  E E S S S S S S S S S S E
----------------------------------|-------------------------------|
----------------------------------|-------------------------------|
----------------------------------|-------------------------------|
----------------------------------|-------------------------------|
--1-1-1-1-1-1-1-1-1-1-1-1-1-1-1-1-|-------------------------------|
----------------------------------|--0--0--0-0---0-0---0-0---0-0--|


 E E S S S S S S S S S S E   S S S S S S S S S S S S S S S S
-------------------------------|----------------------------------|
-------------------------------|----------------------------------|
-------------------------------|----------------------------------|
-------------------------------|----------------------------------|
-------------------------------|--1-1-1-1-1-1-1-1-1-1-1-1-1-1-1-1-|
--0--0--0-0---0-0---0-0---0-0--|----------------------------------|


 S S S S S S S S S S S S S S S S  E E S S S S S S S S S S E
----------------------------------|-------------------------------|
----------------------------------|-------------------------------|
----------------------------------|-------------------------------|
----------------------------------|-------------------------------|
--1-1-1-1-1-1-1-1-1-1-1-1-1-1-1-1-|--3--3--3-3---3-3---3-3---3-3--|
----------------------------------|-------------------------------|


 E E S S S S S S S S S S E   S S S S S S S S S S S S S S S S
-------------------------------|----------------------------------|
-------------------------------|----------------------------------|
-------------------------------|----------------------------------|
-------------------------------|----------------------------------|
--3--3--3-3---3-3---3-3---3-3--|--1-1-1-1-1-1-1-1-1-1-1-1-1-1-1-1-|
-------------------------------|----------------------------------|


 S S S S S S S S S S S S S S S S  E E S S S S S S S S S S E
----------------------------------|-------------------------------|
----------------------------------|-------------------------------|
----------------------------------|-------------------------------|
----------------------------------|-------------------------------|
--1-1-1-1-1-1-1-1-1-1-1-1-1-1-1-1-|-------------------------------|
----------------------------------|--0--0--0-0---0-0---0-0---0-0--|


 E E S S S S S S S S S S E   E E E E E E E E
-------------------------------|--------------------------|
-------------------------------|--------------------------|
-------------------------------|--------------------------|
-------------------------------|--------------------------|
-------------------------------|--3--3--3--3--3--3--3--3--|
--0--0--0-0---0-0---0-0---0-0--|--------------------------|


 E E E E E E E E   E E E E E E E E
--------------------------|--------------------------|
--------------------------|--------------------------|
--------------------------|--------------------------|
-----0--0--2--2-----------|--------------------------|
--3--------------3--3--3--|--4--4--4--4--4--4--4--4--|
--------------------------|--------------------------|


              (3.57) Bridge

 E E E E E E E E   H.      E S S  W
--------------------------|----------------------|-------------------|
--------------------------|----------------------|-------------------|
--------------------------|----------------------|-------------------|
--------------------------|------------------5-7-|--5----------------|
--4--4--4--4--4--4--4--4--|--0------------L------|-------------------|
--------------------------|----------------------|-------------------|


 W          E. E. E E. E. S S  H.      E E
-------------------|-------------------------|---------------------|
-------------------|-------------------------|---------------------|
-------------------|-------------------------|---------------------|
--4----------------|--3---2---0--2---0-------|---------------------|
-------------------|---------------------3-2-|--0------------L--7--|
-------------------|-------------------------|---------------------|


                 |----3----|        |----3----|
 Q.   Q.   Q    H    Q  Q  Q    H    Q  Q  Q
---------------------|--------------------------|--------------------------|
---------------------|--------------------------|--------------------------|
---------4------5----|--4--------L--------------|--------------------------|
--7------------------|----------------7----5----|---------------------5----|
---------------------|--------------------------|--5--------L----7---------|
---------------------|--------------------------|--------------------------|


      |----3----|         |----3----|
 H    Q  Q  Q    Q.   E Q  Q  Q
--------------------------|---------------------------|
--------------------------|---------------------------|
----------------4----5----|--7------4--L--------------|
--7--------L--------------|-----------------5---------|
--------------------------|----------------------7----|
--------------------------|---------------------------|


       Harm.
       NH   NH
 H     Q   Q    W          H.      E E
-----------<>5-----------|--L----------------|---------------------|
------------------<>4----|--L----------------|---------------------|
-------------------------|-------------------|---------------------|
--7----------------------|-------------------|---------------------|
-------------------------|-------------------|--0------------L--7--|
-------------------------|-------------------|---------------------|


                            |----3----|
 H    Q  Q    H.      E E   H    Q  Q  Q
---------------------|---------------------|--------------------------|
---------------------|---------------------|--------------------------|
-----------4----5----|--4------------L-----|-----------5----4---------|
--7------------------|------------------7--|--5------------------5----|
---------------------|---------------------|--------------------------|
---------------------|---------------------|--------------------------|


 H.      E E   H     H      E E E E E E E E
---------------------|---------------------|--------------------------|
---------------------|---------------------|--------------------------|
------------------2--|--0------------------|--------------------------|

Almost there ...

Sign in to get your own page with links to favourite songs and more. You are just one click away...

Login with Facebook Login with Google