Log in

One click and you are in

Login with Facebook Login with Google

Why sign up and log in

Guitar Tabs Explorer
Pagans Mind bass tabs for Aegean shores

Bass tabs with lyrics

Aegean Shores


(0.00) Intro                    (0.05)
               H     H      E E E E E E S S S S
C||-------|-------|-------|----------------------|----------------------------|
G||-------|-------|-------|----------------------|----------------------------|
D||-------|-------|-------|----------------------|----------------------------|
A||-------|-------|-------|----------------------|----------------------------|
E||-------|-------|-------|-----------15\--------|--0--0--0--0--0--0--0-0-0-0-|
B||-------|-------|-------|----------------------|----------------------------|
 E E E E E E S S S S  E E E E E E S S S S
----------------------------|----------------------------|
----------------------------|----------------------------|
----------------------------|----------------------------|
----------------------------|----------------------------|
--0--0--0--0--0--0--0-0-0-0-|--0--0--0--0--0--0--0-0-0-0-|
----------------------------|----------------------------|


 E E E E E E S S S S  Q  E E Q  E E   Q  E E Q  E E
----------------------------|------------------------|------------------------|
----------------------------|------------------------|------------------------|
----------------------------|------------------------|------------------------|
----------------------------|------------------------|------------------------|
--0--0--0--0--0--0--0-0-0-0-|--0----0--0--0----0--0--|--0----0--0--0----0--0--|
----------------------------|------------------------|------------------------|


 Q  E E Q  E E   Q  E E Q  E E   Q  E E Q  E E
------------------------|------------------------|------------------------|
------------------------|------------------------|------------------------|
------------------------|------------------------|------------------------|
------------------------|------------------------|------------------------|
--0----0--0--0----0--0--|--0----0--0--0----0--0--|--0----0--0--0----0--0--|
------------------------|------------------------|------------------------|

 Q  E E E E E E   Q  E E Q  E E   Q  E E E E E E
-------------------------|------------------------|-------------------------|
-------------------------|------------------------|-------------------------|
-------------------------|------------------------|-------------------------|
-------------5--7--------|------------------------|-------------5--7--------|
--0----0--0--------0--0--|--0----0--0--0----0--0--|--0----0--0--------0--0--|
-------------------------|------------------------|-------------------------|


(0.22)

 Q  E E Q  E E   Q  E E Q  E E   Q  E E Q  E E
------------------------|------------------------|------------------------|
------------------------|------------------------|------------------------|
------------------------|------------------------|------------------------|
------------------------|------------------------|------------------------|
--0----0--0--0----0--0--|------------------------|------------------------|
------------------------|--3----3--3--0----0--0--|--1----1--1--1----1--1--|


 Q  E E Q  E E   Q  E E Q  E E   Q  E E Q  Q
------------------------|------------------------|-----------------------|
------------------------|------------------------|-----------------------|
------------------------|------------------------|-----------------------|
------------------------|------------------------|-----------------------|
------------------------|--0----0--0--0----0--0--|--0----0--0--0----2----|
--1----1--1--1----1--3--|------------------------|-----------------------|


                          (0.33)

 Q  E E Q  E E   Q  E E E E E E   E E E E E E E E
------------------------|-------------------------|--------------------------|
------------------------|-------------------------|--------------------------|
------------------------|-------------------------|--------------------------|
------------------------|----------------------0--|--L--0--0--0--0--0--0--0--|
--3----3--3--3----3--3--|--3----3--3--3--3--3-----|--------------------------|
------------------------|-------------------------|--------------------------|


 E E E E E E E E   E E E E E E E E
--------------------------|--------------------------|
--------------------------|--------------------------|
--------------------------|--------------------------|
--0--0--0--0--0--0--0--6--|--L--6--6--6--6--6--6--6--|
--------------------------|--------------------------|
--------------------------|--------------------------|


 E E E E E E E E   E E E E E E E E
--------------------------|--------------------------|
--------------------------|--------------------------|
-----8--7-----5-----------|--------------------------|
--6--------8-----6--3--0--|--L--0--0--0--0--0--0--0--|
--------------------------|--------------------------|
--------------------------|--------------------------|


 E E E E E E E E   E E E E E E E E
--------------------------|--------------------------|
--------------------------|--------------------------|
--------------------------|--------------------------|
--0--0--0--0--0--0--0-----|--------------------------|
--------------------------|--------------------------|
-----------------------4--|--L--4--4--4--4--4--4--4--|

              (0.44) Verse 1

 E E E E E E E E   Q  E E Q  E E   Q  E E E E E E
--------------------------|------------------------|-------------------------|
--------------------------|------------------------|-------------------------|
--------------------------|------------------------|-------------------------|
--------------------------|------------------------|-------------------------|
--------------------3--0--|--0----0--0--0----0--0--|--0----0--0--0--------3--|
--4--4--4--4--4--4--------|------------------------|----------------0--3-----|


 Q  E E Q  E E   Q  E E E E E E   Q  E E Q  E E
------------------------|-------------------------|------------------------|
------------------------|-------------------------|------------------------|
------------------------|-------------------------|------------------------|
------------------------|-------------------------|------------------------|
--0----0--0--0----0--0--|-------0--0--0--------3--|--0----0--0--0----0--0--|
------------------------|----------------0--3-----|------------------------|


 Q  E E E E E E   Q  E E Q  E E   Q  E E E E E E
-------------------------|------------------------|-------------------------|
-------------------------|------------------------|-------------------------|
-------------------------|------------------------|-------------------------|
-------------------------|------------------------|-------------------------|
-------0--0--0--------3--|--0----0--0--0----0--0--|-------0--0--0--------3--|
----------------0--3-----|------------------------|----------------0--3-----|


 Q  E E Q  E E   Q  E E Q  E E   Q  E E Q  E E
------------------------|------------------------|------------------------|
------------------------|------------------------|------------------------|
------------------------|------------------------|------------------------|
------------------------|------------------------|------------------------|
--0----0--0--0----0--0--|------------------------|------------------------|
------------------------|--3----3--3--0----0--0--|--1----1--1--1----1--1--|


 Q  E E E E E E   Q  E E Q  E E   E E E E Q  E E
-------------------------|------------------------|-------------------------|
-------------------------|------------------------|-------------------------|
-------------------------|------------------------|-------------------------|
-------------------------|------------------------|-------------------------|
-------------------------|--0----0--0--0----0--0--|--0--0--0--0--2----2--2--|
-------1--1--1--0--1--3--|------------------------|-------------------------|


                         (1.05)

 Q  E E Q  E E   Q  Q  Q  E E   E E E E E E E E
------------------------|-----------------------|--------------------------|
------------------------|-----------------------|--------------------------|
------------------------|-----------------------|--------------------------|
------------------------|--------------------0--|--L--0--0--0--0--0--0--0--|
--3----3--3--3----3--3--|--3----3----3----L-----|--------------------------|
------------------------|-----------------------|--------------------------|


 E E E E E E E E   E E E E E E E E
--------------------------|--------------------------|
--------------------------|--------------------------|
--------------------------|--------------------------|
--0--0--0--0--0--0--0--6--|--L--6--6--6--6--6--6--6--|
--------------------------|--------------------------|
--------------------------|--------------------------|


 E E E E E E E E   E E E E E E E E
--------------------------|--------------------------|
--------------------------|--------------------------|
--------------------------|--------------------------|
--6--6--6--6--6--6--6--0--|--L--0--0--0--0--0--0--0--|
--------------------------|--------------------------|
--------------------------|--------------------------|


 E E E E E E E E   E E E E E E E E
--------------------------|--------------------------|
--------------------------|--------------------------|
--------------------------|--------------------------|
--0--0--0--0--0--0--0--6--|--L--6--6--6--6--6--6--6--|
--------------------------|--------------------------|
--------------------------|--------------------------|

              (1.16) Pre-Chorus 1

 E E E E E E E E   E E E E E E E E
--------------------------|--------------------------|
--------------------------|--------------------------|
--------------------------|--------------------------|
--6--6--6--6--6--6--6--6--|--4--4--4--4--4--4--4--4--|
--------------------------|--------------------------|
--------------------------|--------------------------|


 E E E E E E E E   E E E E E E E E   E E H.
--------------------------|--------------------------|---------------------|
--------------------------|--------------------------|---------------------|
--------------------------|--------------------------|--5------------------|
--0--0--0--0--0--0--0--0--|--4--4--4--4--4--4--4--4--|---------------------|
--------------------------|--------------------------|---------------------|
--------------------------|--------------------------|---------------------|


(1.22) Dat Riff 1

 E E E E S S E E E   E E E E E Q.
---------------------------|------------------------|
---------------------------|------------------------|
---------------------------|------------------------|
---------------------------|------------------------|
--2--0--2--0--2-2-0--2--0--|--2--0--2--0--2--3------|
---------------------------|------------------------|


 E E E E S S E E E   E E E E E Q.
---------------------------|------------------------|
---------------------------|------------------------|
---------------------------|------------------------|
---------------------------|------------------------|
--2--0--2--0--2-2-0--2--0--|--2--0--2--0--2--0------|
---------------------------|------------------------|


 E E E E S S E E E   E E E E E Q.
---------------------------|------------------------|
---------------------------|------------------------|
---------------------------|------------------------|
---------------------------|------------------------|
--2--0--2--0--2-2-0--2--0--|--2--0--2--0--2--3------|
---------------------------|------------------------|


 E E E E S S E E E   E E E E E E E E
---------------------------|--------------------------|
---------------------------|--------------------------|
---------------------------|--------------------------|
---------------------------|--------------------------|
--2--0--2--0--2-2-0--2--0--|--2--2--0--2--L--2--0--0--|
---------------------------|--------------------------|


(1.33) Chorus 1

 E E E E E E E E   E E E E E E E E
--------------------------|--------------------------|
--------------------------|--------------------------|
--------------------------|--------------------------|
--5--5--5--5--5--5--5--5--|--5--5--5--5--3--3--3--3--|
--------------------------|--------------------------|
--------------------------|--------------------------|


 E E E E E E E E   E E E E E E E E
--------------------------|--------------------------|
--------------------------|--------------------------|
--------------------------|--------------------------|
--1--1--1--1--1--1--1--1--|--1--1--1--1--0--0--0--0--|
--------------------------|--------------------------|
--------------------------|--------------------------|


 E E E E E E E E   E E E E E E E E   Q  E E Q  E E
--------------------------|--------------------------|------------------------|
--------------------------|--------------------------|------------------------|
--------------------------|--------------------------|------------------------|
--------------------------|--------------------------|------------------------|
--3--3--3--3--3--3--3--3--|--3--3--3--3--1--1--1--1--|------------------------|
--------------------------|--------------------------|--4----4--4--4----4--4--|


 Q  E E E E E E   E E E E E E E E   E E E E E E E E
-------------------------|--------------------------|--------------------------|
-------------------------|--------------------------|--------------------------|
-------------------------|--------------------------|--------------------------|
-------------------------|--------------------------|-----------------------0--|
-------------------3-----|--------------------------|-----------------0--1-----|
--4----4--4--4--6-----4--|--3--3--3--3--3--3--3--3--|--3--3--3--3--3-----------|


 E E E E E E E E   E E E E E E E E
--------------------------|--------------------------|
--------------------------|--------------------------|
--------------------------|--------------------------|
--1--1--1--1--1--1--1--1--|--1--1--1--1--1--3--1--0--|
--------------------------|--------------------------|
--------------------------|--------------------------|


 E S S E E E E E S S  E E E E E E E E
----------------------------|--------------------------|
----------------------------|--------------------------|
----------------------------|--------------------------|
----------------------------|--------------1--0--------|
--3--3-3-3--3--3--3--3--3-3-|--3--3--3--3--------3--1--|
----------------------------|--------------------------|


 Q  E E Q  E E   Q  E E   E E E E E E E E
------------------------|-------------|--------------------------|
------------------------|-------------|--------------------------|
------------------------|-------------|--------------------------|
------------------------|-------------|--------------------------|
------------------------|-------------|--0--0--0--0--0--0--0--0--|
--4----4--4--4----4--4--|--4----4--4--|--------------------------|


              (1.57) Verse 2

 E E E E E E E E   E E E E E E E E
--------------------------|--------------------------|
--------------------------|--------------------------|
--------------------------|--------------------------|
--------------------------|--------------------------|
--0--0--0--0--0-----------|--------------------------|
-----------------0--3--0--|--3--5--5--3--5--5--5--5--|


 E E E E E E E E   E E E E E E E E
--------------------------|--------------------------|
--------------------------|--------------------------|
--------------------------|--------------------------|
--------------------------|--------------------------|
--------------------------|--------------------------|
--5--5--5--5--5--0--3--0--|--5--5--5--5--5--5--5--5--|


 E E E E E E E E   E E E E E E E E
--------------------------|--------------------------|
--------------------------|--------------------------|
--------------------------|--------------------------|
--------------------------|--------------------------|
--------------------------|--------------------------|
--5--5--5--5--5--0--3--0--|--5--5--5--5--5--5--5--5--|


 E E E E E E E E   E E E E E E E E
--------------------------|--------------------------|
--------------------------|--------------------------|
--------------------------|--------------------------|
--------------------------|--------------------------|
--------------------------|--------------------------|
--5--5--5--5--5--0--3--0--|--5--5--5--5--5--5--5--5--|


 E E E E E E E E   E E E E E E E E
--------------------------|--------------------------|
--------------------------|--------------------------|
--------------------------|--------------------------|
--------------------------|--------------------------|
--3-----3-----3-----------|--------------------------|
-----5-----5-----5--3--0--|--5--5--5--5--5--5--5--5--|


 E E E E E E E E   E E E E E E E E
--------------------------|--------------------------|
--------------------------|--------------------------|
--------------------------|--------------------------|
--------------------------|--------------------------|
--------------------------|--------------------------|
--3--3--3--3--0--0--0--0--|--1--1--1--1--1--1--1--1--|


 E E E E E E E E   E E E E E E E E
--------------------------|--------------------------|
--------------------------|--------------------------|
--------------------------|--------------------------|
--------------------------|--------------------------|
--------------------------|--0--0--0--0--0--0--0--0--|
--1--1--1--1--1--0--1--3--|--------------------------|


 E E E E E E E E   E E E E E E E E
--------------------------|--------------------------|
--------------------------|--------------------------|
--------------------------|--------------------------|
--------------------------|--------------------------|
--0--0--0--0--2--2--2--2--|--3--3--3--3--3--3--3--3--|
--------------------------|--------------------------|


              (2.19)

 E E E E E E E E   E E E E E E E E
--------------------------|--------------------------|
--------------------------|--------------------------|
--------------------------|--------------------------|
-----------------------0--|--L--0--0--0--0--0--0--0--|
--3--3--3--3--3--3--3-----|--------------------------|
--------------------------|--------------------------|


 E E E E E E E E   E E E E E E E E
--------------------------|--------------------------|
--------------------------|--------------------------|
--------------------------|--------------------------|
--0--0--0--0--0--0--0--6--|--L--6--6--6--6--6--6--6--|
--------------------------|--------------------------|
--------------------------|--------------------------|


 E E E E E E E E   E E E E E E E E
--------------------------|--------------------------|
--------------------------|--------------------------|
--------------------------|--------------------------|
--6--6--6--6--6--6--6--0--|--L--0--0--0--0--0--0--0--|
--------------------------|--------------------------|
--------------------------|--------------------------|


 E E E E E E E E   E E E E E E E E
--------------------------|--------------------------|
--------------------------|--------------------------|
--------------------------|--------------------------|
--0--0--0--0--0--0--0-----|--------------------------|
--------------------------|--------------------------|
-----------------------4--|--L--4--4--4--4--4--4--4--|

              (2.30) Pre-Chorus 2

 E E E E E E E E   E E E E E E E E
--------------------------|--------------------------|
--------------------------|--------------------------|
--------------------------|--------------------------|
--------------------------|--4--4--4--4--4--4--4--4--|
--------------------------|--------------------------|
--4--4--4--4--4--4--4--4--|--------------------------|


 E E E E E E E E   E E E E E E E E   Q  Q  Q  Q
--------------------------|--------------------------|----------------------|
--------------------------|--------------------------|----------------------|
--------------------------|--------------------------|----------------------|
--0--0--0--0--0--0--0--0--|--4--4--4--4--4--4--4--4--|----------------------|
--------------------------|--------------------------|--3----3----3----3----|
--------------------------|--------------------------|----------------------|


 E E E E E E E E   E E E E E E E E
--------------------------|--------------------------|
--------------------------|--------------------------|
--------------------------|--------------------------|
--4--4--4--4--4--4--4--4--|--0--0--0--0--0--0--0--0--|
--------------------------|--------------------------|
--------------------------|--------------------------|


 E E E E E E E E   E E E E E E E E
--------------------------|--------------------------|
--------------------------|--------------------------|
--------------------------|--5-----5-----5-----5-----|
--4--4--4--4--4--4--4--4--|--------------------------|
--------------------------|--------------------------|
--------------------------|--------------------------|


(2.41) Dat Riff 2

 E E E E S S E E E   E E E E E Q.
---------------------------|------------------------|
---------------------------|------------------------|
---------------------------|------------------------|
---------------------------|------------------------|
--2--0--2--0--2-2-0--2--0--|--2--0--2--0--2--3------|
---------------------------|------------------------|


 E E E E S S E E E   E E E E E Q.
---------------------------|------------------------|
---------------------------|------------------------|
---------------------------|------------------------|
---------------------------|------------------------|
--2--0--2--0--2-2-0--2--0--|--2--0--2--0--2--0------|
---------------------------|------------------------|


 E E E E S S E E E   E E E E E Q.
---------------------------|------------------------|
---------------------------|------------------------|
---------------------------|------------------------|
---------------------------|------------------------|
--2--0--2--0--2-2-0--2--0--|--2--0--2--0--2--3------|
---------------------------|------------------------|


 E E E E S S E E E   E E E E E E E E
---------------------------|--------------------------|
---------------------------|--------------------------|
---------------------------|--------------------------|
---------------------------|--------------------------|
--2--0--2--0--2-2-0--2--0--|--2--2--0--2--L--2--0--0--|
---------------------------|--------------------------|


(2.52) Chorus 2

 E E E E E E E E   E E E E E E E E
--------------------------|--------------------------|
--------------------------|--------------------------|
--------------------------|--------------------------|
--5--5--5--5--5--5--5--5--|--5--5--5--5--3--3--3--3--|
--------------------------|--------------------------|
--------------------------|--------------------------|


 E E E E E E E E   E E E E E E E E
--------------------------|--------------------------|
--------------------------|--------------------------|
--------------------------|--------------------------|
--1--1--1--1--1--1--1--1--|--1--1--1--1--0--0--0--0--|
--------------------------|--------------------------|
--------------------------|--------------------------|


 E E E E E E E E   E E E E E E E E   Q  E E Q  E E
--------------------------|--------------------------|------------------------|
--------------------------|--------------------------|------------------------|
--------------------------|--------------------------|------------------------|
--------------------------|--------------------------|------------------------|
--3--3--3--3--3--3--3--3--|--3--3--3--3--1--1--1--1--|------------------------|
--------------------------|--------------------------|--4----4--4--4----4--4--|


 Q  E E E E E E   E E E E E E E E   E E E E E E E E
-------------------------|--------------------------|--------------------------|
-------------------------|--------------------------|--------------------------|
-------------------------|--------------------------|--------------------------|
-------------------------|--------------------------|-----------------------0--|
-------------3--3--------|--------------------------|-----------------0--1-----|
--4----4--4--------4--4--|--3--3--3--3--3--3--3--3--|--3--3--3--3--3-----------|


 E E E E E E E E   E E E E E E E E
--------------------------|--------------------------|
--------------------------|--------------------------|
--------------------------|--------------------------|
--1--1--1--1--1--1--1--1--|--1--1--1--1--1--3--1--0--|
--------------------------|--------------------------|
--------------------------|--------------------------|


 E E E E E E E E   E E E E E E E E   Q  E E Q  E E
--------------------------|--------------------------|------------------------|
--------------------------|--------------------------|------------------------|
--------------------------|--------------------------|------------------------|
--------------------------|--------------------------|------------------------|
--3--3--3--3--3--3--3--3--|--3--3--3--3--1--1--1--1--|------------------------|
--------------------------|--------------------------|--4----4--4--4----4--4--|

       (3.14) Bridge

 Q  E E                Q  Q  E E E E
-------------|-----|-----|-----|-----||-------------------------|
-------------|-----|-----|-----|-----||-------------------------|
-------------|-----|-----|-----|-----||*-------7-------------7--|
-------------|-----|-----|-----|-----||*--8------------8--------|
-------------|-----|-----|-----|-----||-------------------------|
--4----4--4--|-----|-----|-----|-----||-------------------------|


 S S S S E E S S S S S S S S  Q  Q  E E E E
--------------------------------|------------------------|
--------------------------------|------------------------|
----------7-------------7-7-7-7-|-------8-------------8--|
--8-8-8-8-------8-8-8-8---------|--9------------9--------|
--------------------------------|------------------------|
--------------------------------|------------------------|

                 (3.32) Riff down an octave

 S S S S E E S S S S S S S S    Q  Q  E E E E
---------------------------------||-------------------------|
---------------------------------||-------------------------|
----------8-------------8-8-8-8-*||*------------------------|
--9-9-9-9-------9-9-9-9---------*||*------------------------|
---------------------------------||--------5-------------5--|
---------------------------------||---6------------6--------|


 S S S S E E S S S S S S S S  Q  Q  E E E E
--------------------------------|------------------------|
--------------------------------|------------------------|
--------------------------------|------------------------|
--------------------------------|------------------------|
----------5-------------5-5-5-5-|-------6-------------6--|
--6-6-6-6-------6-6-6-6---------|--7------------7--------|


1st time.              2nd time.

 S S S S E E S S S S S S S S   S S S S S S S S S S S S S S S S
---------------------------------||----------------------------------|
---------------------------------||----------------------------------|
--------------------------------*||----------------------------------|
--------------------------------*||----------------------------------|
----------6-------------6-6-6-6--||----------6-6-6-6---------6-6-6-6-|
--7-7-7-7-------7-7-7-7----------||--7-7-7-7---------7-7-7-7---------|


(3.43) Guitar solo

 E. S E E E. S E E   E. S E E E. S E E
--------------------------|--------------------------|
--------------------------|--------------------------|
--------------------------|--------------------------|
--0---0-0--0--0---0-0--0--|--2---2-2--2--2---2-2--2--|
--------------------------|--------------------------|
--------------------------|--------------------------|


 E. S E E E. S E E   E. S E E. S E E E
--------------------------|--------------------------|
--------------------------|--------------------------|
--------------------------|--------------------------|
--4---4-4--4--4---4-4--4--|--------------------0--2--|
--------------------------|--4---4-4--4---4-4--------|
--------------------------|--------------------------|


 E. S E E E. S E E   E. S E E E. S E E
--------------------------|--------------------------|
--------------------------|--------------------------|
--------------------------|--------------------------|
--0---0-0--0--0---0-0--0--|--2---2-2--2--2---2-2--2--|
--------------------------|--------------------------|
--------------------------|--------------------------|


 E. S E E E. S E E   E E E E E E E E
--------------------------|--------------------------|
--------------------------|--------------------------|
--------------------------|--------------------------|
--4---4-4--4--4---4-4--4--|--------------------2--4--|
--------------------------|--4--4--4--4--4--5--------|
--------------------------|--------------------------|


 E E E E E E E E   E E E E E E E E
--------------------------|--------------------------|
--------------------------|--------------------------|
--------------------------|--------------------------|
--5--5--5--5--5--5--5--5--|--7--7--7--7--7--7--7--7--|
--------------------------|--------------------------|
--------------------------|--------------------------|


 E E E E E E E E   E E E E E E E E
--------------------------|--------------------------|
--------------------------|--------------------------|
--4--4--4--4--4--4--4--4--|--------------------------|
--------------------------|--4--4--4--4--4--4--4--7--|
--------------------------|--------------------------|
--------------------------|--------------------------|


 E E E E E E E E   E E E E E E E E
--------------------------|--------------------------|
--------------------------|--------------------------|
--------------------------|--------------------------|
--5--5--5--5--5--0--------|--------------------------|
--------------------4-----|--0--0--0--0--0--0--0--0--|
-----------------------3--|--------------------------|


(4.04) Dat Riff 3

 E E E E S S E E E   E E E E E Q.
---------------------------|------------------------|
---------------------------|------------------------|
---------------------------|------------------------|
---------------------------|------------------------|
--2--0--2--0--2-2-0--2--0--|--2--0--2--0--2--3------|
---------------------------|------------------------|


 E E E E S S E E E   E E E E E Q.
---------------------------|------------------------|
---------------------------|------------------------|
---------------------------|------------------------|
---------------------------|------------------------|
--2--0--2--0--2-2-0--2--0--|--2--0--2--0--2--0------|
---------------------------|------------------------|


 E E E E S S E E E   E E E E E Q.
---------------------------|------------------------|
---------------------------|------------------------|
---------------------------|------------------------|
---------------------------|------------------------|
--2--0--2--0--2-2-0--2--0--|--2--0--2--0--2--3------|
---------------------------|------------------------|


                            (4.16) Chorus 3
 E E E E S S E E E   E E E E E E E E   W
---------------------------|--------------------------|-------------------|
---------------------------|--------------------------|-------------------|
---------------------------|--------------------------|-------------------|
---------------------------|--------------------------|-------------------|
--2--0--2--0--2-2-0--2--0--|--2--2--2--2--2--2--2-----|-------------------|
---------------------------|-----------------------3--|--L----------------|


 W          E E E E E E E E   E E E E E E E E
-------------------|--------------------------|--------------------------|
-------------------|--------------------------|--------------------------|
-------------------|--------------------------|--------------------------|
-------------------|--1--1--1--1--1--1--1--1--|--1--1--1--1--1--3--1--0--|
-------------------|--------------------------|--------------------------|
--L----------------|--------------------------|--------------------------|


 E E E E E E E E   E E E E E E E E   Q  E E Q  E E
--------------------------|--------------------------|------------------------|
--------------------------|--------------------------|------------------------|
--------------------------|--------------------------|------------------------|
--------------------------|--------------------------|------------------------|
--3--3--3--3--3--3--3--3--|--3--3--3--3--1--1--1--1--|------------------------|
--------------------------|--------------------------|--4----4--4--4----4--4--|


 Q  E E E E Q    E E E E E E E E   E E E E E E E E
------------------------|--------------------------|--------------------------|
------------------------|--------------------------|--------------------------|
------------------------|--------------------------|--------------------------|
------------------------|--------------------------|-----------------------0--|
------------------------|--------------------------|-----------------0--1-----|
--4----4--4--4--4--6----|--3--3--3--3--3--3--3--3--|--3--3--3--3--3-----------|


 E E E E E E E E   E E E E E E E E
--------------------------|--------------------------|
--------------------------|--------------------------|
--------------------------|--------------------------|
--1--1--1--1--1--1--1--1--|--1--1--1--1--1--3--1--0--|
--------------------------|--------------------------|
--------------------------|--------------------------|


 E E E E E E E E   E E E E E E E E   Q  E E Q  E E
--------------------------|--------------------------|------------------------|
--------------------------|--------------------------|------------------------|
--------------------------|--------------------------|------------------------|
--------------------------|--------------------------|------------------------|
--3--3--3--3--3--3--3--3--|--3--3--3--3--1--1--1--1--|------------------------|
--------------------------|--------------------------|--4----4--4--4----4--4--|


            (4.40) Chorus 4

 Q  E E Q  Q    E E E E E E E E   E E E E E E E E
-----------------------|--------------------------|--------------------------|
-----------------------|--------------------------|--------------------------|
-----------------------|--------------------------|--------------------------|
-----------------------|--------------------------|-----------------------0--|
-------------3---------|--------------------------|-----------------0--1-----|
--4----4--4-------4----|--3--3--3--3--3--3--3--3--|--3--3--3--3--3-----------|


 E E E E E E E E   E E E E E E E E
--------------------------|--------------------------|
--------------------------|--------------------------|
--------------------------|--------------------------|
--1--1--1--1--1--1--1--1--|--1--1--1--1--1--3--1--0--|
--------------------------|--------------------------|
--------------------------|--------------------------|


 E E E E E E E E   E E E E E E E E
--------------------------|--------------------------|
--------------------------|--------------------------|
--------------------------|--------------------------|
--------------------------|--------------------------|
--3--3--3--3--3--3--3--3--|--3--3--3--3--1--1--1--1--|
--------------------------|--------------------------|


 S S Q  S S Q  S S E   E S S Q  S S Q E E
---------------------------|--------------------------|
---------------------------|--------------------------|
---------------------------|--------------------------|
---------------------------|--------------------------|
---------------------------|---------------------3----|
--4-4-4----4-4-4----4-4-4--|--L--4-4-4----4-4-4----4--|


 E E E E E E E E   E E E E E E E E
--------------------------|--------------------------|
--------------------------|--------------------------|
--------------------------|--------------------------|
--------------------------|-----------------------0--|
--------------------------|-----------------0--1-----|
--3--3--3--3--3--3--3--3--|--3--3--3--3--3-----------|


 E E E E E E E E   E E E E E E E E
--------------------------|--------------------------|
--------------------------|--------------------------|
--------------------------|--------------------------|
--1--1--1--1--1--1--1--1--|--1--1--1--1--1--3--1--0--|
--------------------------|--------------------------|
--------------------------|--------------------------|

                           (4.59) Outro
                               |--3--|
 E E E E E E E E   E E E E E E E E   Q  E E E H
--------------------------|--------------------------|-------------------------|
--------------------------|--------------------------|-------------------------|
--------------------------|--------------------------|-------------------------|
--------------------------|--------------1--0--------|-------------------------|
--3--3--3--3--3--3--3--3--|--3--3--3--3--------3--1--|-------------------------|
--------------------------|--------------------------|--4----4--4--4--4--------|


 H    H      W
--------------------|-------------------||
--------------------|-------------------||
--------------------|-------------------||
--------------------|-------------------||
-----------0--------|--L----------------||
--4-----------------|-------------------||



Duration 🏷Legend
---------------
W - whole
H - half
Q - quarter
E - 8th
S - 16th
T - 32nd
X - 64th
. - note dotted
|-n-| - n-tuplets


Tablature 🏷Legend
----------------
L - tied note
x - dead note
g - grace note
(n) - ghost note
> - accentuded note
NH - natural harmonic
AH - artificial harmonic
TH - tapped harmonic
SH - semi harmonic
PH - pitch harmonic
h - hammer on
p - pull off
b - bend
br - bendRelease
pb - preBend
pbr - preBendRelease
brb - bendReleaseBend
\n/ - tremolo bar dip
\n - tremolo bar dive
-/n - tremolo bar Release up
/n\ - tremolo bar inverted dip
/n - tremolo bar return
-\n - tremolo bar Release down
S - shift slide
s - legato slide
/ - slide into from below or out of upwards
\ - slide into from above or out of downwards
~ - vibrato
W - wide vibrato
tr - trill
TP - tremolo picking
T - tapping
S - slap
P - pop
< - fade in
^ - brush up

Almost there ...

Sign in to get your own page with links to favourite songs and more. You are just one click away...

Login with Facebook Login with Google