Log in

One click and you are in

Login with Facebook Login with Google

Why sign up and log in

Guitar Tabs Explorer
Nicolo Paganini tabs for Andantino in c

Guitar tabs

Andantino in A chord diagramC majorC - Niccolo Paganini (1782-1849)

(No 1 from "26 Orig Comps for solo guitar")

guitar tab by Weed  <weed@venus.co.uk/weed>  17 April 2000
*********************************************************
tab explanation

left hand fingering below the tab
\  slide down from previous note
/  slide up from previous note
-----6-----  6 notes played during 1 beat of the bar
CI  barre on the first fret
CV  barre on the fifth fret
3p1  pull-off from the 3rd fret to the 1st (acciacatura)
*********************************************************


A chord diagramC majorC Major  2/4  Andantino

0 --.-----|--|-----.-----|-----.-----|--|-----.-----|-----.-----|
E---3-----|--5-----3----\2----/3-----|--5-----3-----2-----3-----|
B---5-----|--6-----5----\4----/5-----|--6-----5-----4-----5-----|
G---------|--------------------------|--------------------------|
D---------|--------------------------|--------------------------|
A---------|--------------------------|--------------------------|
E---------|--------------------------|--------------------------|
    1        2     1
    3        3     3


      -----6----- ----6------               CI...........
3 -|--|-----.-----|-----.-----|--|-----.-----|-----.-----|
E--|--------0-----------1-----|--------0-----------3-----|
B--|------1---1-------3---3---|--------1-----3-----5-----|
G--|----0-------0---0-------0-|--------0-----------------|
D--|--------------------------|--------------------------|
A--|--3-----------2-----------|--3-----------3-----------|
E--|--------------------------|--------------------------|
                  2   4                            1
                                                   3

5 --|--|-----.-----|-----.-----|--|-----.-----|-----.-----|
E---|--5-----3----\2----/3-----|-/5-----3-----2-----3-----|
B---|--6-----5----\4----/5-----|--6-----5-----4-----5-----|
G---|--------------------------|--------------------------|
D---|--------------------------|--------------------------|
A---|--------------------------|--------------------------|
E---|--------------------------|--------------------------|
       2     1
       3     3

      -----6----- ----6------
7 -|--|-----.-----|-----.-----|--|-----.-----|--||--.-----|
E--|--------0-----------1-----|--------0-----0--||--0-----|
B--|------1---1-------3---3---|--------1-----1--||--------|
G--|----0-------0---0-------0-|--------0-----0--||--------|
D--|--------------------------|-----------------||--------|
A--|--3-----------2-----------|--3--------------||--------|
E--|--------------------------|-----------------||--------|


                 CV...........
9 -|--|-----.-----|-----.-----|--|-----.-----|-----.-----|
E--|--8-----7-----5-----------|--------------0-----------|
B--|--------------------5-----|--6-----------------3-----|
G--|--------------------------|--------------------------|
D--|--------------------------|--------------------------|
A--|--0-----------0-----------|--------------------------|
E--|--------------------------|--0-----------------------|
      4     3     1


11-|--|-----.-----|-----.-----|--|-----.-----|-----.-----|
E--|--------------------------|--------------------0-----|
B--|--3p1---0-----1-----------|--------0-----------------|
G--|--------------------2-----|--1-----------------------|
D--|--------------------------|--------------2-----------|
A--|--0-----------------------|--------------------------|
E--|--------------------------|--0-----------0-----------|


                 CI...........
13-|--|-----.-----|-----.-----|--|-----.-----|-----.-----|
E--|--8-----7-----5-----------|--------------0-----------|
B--|--------------------5-----|--6-----------------3-----|
G--|--------------------------|--------------------------|
D--|--------------------------|--------------------------|
A--|--0-----------0-----------|--------------------------|
E--|--------------------------|--0-----------------------|


15-|--|-----.-----|-----.-----|--|-----.-----|-----.-----||

E--|--------------------------|--------------------------||
B--|--1-----------0-----------|--------------------------||
G--|--------2-----------1-----|--2-----2-----2-----------||
D--|--------------------------|--------------------------||
A--|--0-----------------------|--0-----0-----0-----------||
E--|--------------0-----------|--------------------------||
                                                        end


Weed  <http://alt.venus.co.uk/weed>  17 April 2000

Almost there ...

Sign in to get your own page with links to favourite songs and more. You are just one click away...

Login with Facebook Login with Google