Guitar Tabs Explorer
Paddy And The Rats guitar tabs for Ghost from the barrow

Ghost From The Barrow tab


Be the first to rate

Ghost From The Barrow tab by Paddy And The Rats

Guitar tabs with lyrics

Print
-------------------------------------------------------------------------------
                             SONG NAME - Band Name
-------------------------------------------------------------------------------
Tabbed by: Malk
E chord diagramEE-mail:


Tuning: D chord diagramDD G chord diagramGG C chord diagramCC F chord diagramFF A chord diagramAA D chord diagramDD

INTRO : 00:02 - 00:49

e|---------------------------------------------------------------------------|
B|----7--9---7h9--9--7-----------7--9---7h9--9--7----------------------------|
G|-8--------------------8--6--8---------------------8------------------------|
D|---------------------------------------------------------------------------|
A|---------------------------------------------------------------------------|
E|---------------------------------------------------------------------------|

e|---------------------------------------------------------------------------|
B|----7--9--7h9--9--7--------------------------------------------------------|
G|-8-------------------8--6\4--4/6-8--6\4--6--4------------------------------|
D|---------------------------------------------------------------------------|
A|---------------------------------------------------------------------------|
E|---------------------------------------------------------------------------|

00:49 - 01:09

étendonner que c'est compliqué de faire le rythme sur la tab je vous laisse l'écouter et faire par vous même.
it's difficult to make the rhythm with a tab , I let you do it alone.

e|---------------------------------------------------------------------------|
B|-------4-------------------------------------------------------------------|
G|-------4---3---------------------------------------------------------------|
D|---6---4---4---6-----------------------------------------------------------|  x3
A|---6-------4---6-----------------------------------------------------------|
E|---4-----------4-----------------------------------------------------------|

e|---4---4-------------------------------------------------------------------|
B|---5---5-------------------------------------------------------------------|
G|---4---4---3---------------------------------------------------------------| x1
D|-----------4---6-----------------------------------------------------------|
A|-----------4---6-----------------------------------------------------------|
E|---------------4-----------------------------------------------------------|

01:09 - 01:30

e|---------------------------------------------------------------------------|
B|---------------------------------------------------------------------------|
G|---------------------------------------------------------------------------|
D|-------------------x8-x8x8-x8x8-x8x8--x9-x9x9-x9x9-x9x9--------------------|
A|-x6-x6x6-x6x6-x6x6-x6-x6x6-x6x6-x6x6--x7-x7x7-x7x7-x7x7-x6-x6x6-x6x6-x6x6--|
E|-x4-x4x4-x4x4-x4x4--------------------------------------x4-x4x4-x4x4-x4x4--|

e|---------------------------------------------------------------------------|
B|---------------------------------------------------------------------------|
G|---------------------------------------------------------------------------|
D|-x9-x9x9-x9x9-x9x9--------------------x8-x8x8--x4-x4x4---------------------| x2
A|-x7-x7x7-x7x7-x7x7--x9-x9x9-x9x9-x9x9-x6-x6x6--x4-x4x4-x6-x6x6-x6x6-x6x6---|
E|--------------------x7-x7x7-x7x7-x7x7------------------x4-x4x4-x4x4-x4x4---|

pre chorus 01:30 - 01:44

e|--4-------------------------------4----------------------------------------|
B|--5-------------------------------5----------------------------------------|
G|--4--------------3----------------4------3---------------------------------|
D|-----------------4-----------------------4----------------8----------------|
A|-----------------4-----------------------4----------------8----------------|
E|----------------------------------------------------------6----------------|

chorus 01:44 - 01:58
étendonner que c'est compliqué de faire le rythme sur la tab je vous laisse l'écouter et faire par vous même.
it's difficult to make the rhythm with a tab , I let you do it alone.

e|---------------------------------------------------------------------------|
B|-------------4-------------------------------------------------------------|
G|-------------4------------3------------------------------------------------|
D|---6---------4------------4-----------6------------------------------------|  x3
A|---6----------------------4-----------6------------------------------------|
E|---4----------------------------------4------------------------------------|

e|---4---------4-------------------------------------------------------------|
B|---5---------5-------------------------------------------------------------|
G|---4---------4------------3------------------------------------------------|
D|--------------------------4-----------6------------------------------------| x1
A|--------------------------4-----------6------------------------------------|
E|--------------------------------------4------------------------------------|



************************************

| /   slide up
| \   slide down
| h   hammer-on
| p   pull-off
| ~   vibrato
| +   harmonic
| x   Mute note
| b   Bend
| pb  Pre-bend
| br  Bend release
| pbr Pre-bend release
| brb Bend release bend

Other versions of Ghost From The Barrow

Ghost from the barrow-(Ver. 2)Tabs

Comment this song and these guitar tabs

Do you have corrections, comments on the guitar tabs, thoughts about the song or a message to the author? Write them below.