Guitar Tabs Explorer
Paddy And The Rats guitar tabs for Ghost from the barrow (Ver. 2) guitar solo

Ghost From The Barrow tab


Be the first to rate


Ayreon77Author: Ayreon77

Ghost From The Barrow tab by Paddy And The Rats (Ver. 2) (Solo)

Guitar tabs

Print
  • Tuning: Standard tuning
  • Difficulty: Novice

---------------------------------------------------------------------------------------------------------------
                                          Artist - Paddy And The Rats
                                         *****************************
                                         Song - Ghost From The Barrow
                                        ******************************
                                      Album - Tales From the Docks (2013)
                                     *************************************
                                            Tabbed By - Ayreon77
                                           **********************
---------------------------------------------------------------------------------------------------------------
Tuning = Standard

p   = Pull Off
h   = Hammer On
b   = Bend
rb  = Release Bend
rbp = Release Bend Pulloff
br  = Bend Release
brp = Bend Release Pulloff
/   = Slide
UB  = Union Bend


                                      This was a request for the solo.

03:20
e|------------|-------|-------------------b--brp---------|-------------------|
B|------------|-----s-|------10-12-12-10-12-12--10-------|-----p----------10-|
G|---h---9-11-|-9-11\-|-9-11-----------------------11-11-|-9-11-9----9-11----|
D|-10-11------|-------|----------------------------------|--------11---------|
A|------------|-------|----------------------------------|-------------------|
E|------------|-------|----------------------------------|-------------------|

03:28                         b    br                                                                       s
e|------h---9-|---h---9-|-12-12-|-12--9--br----|----------|----------|-------------9-12-14-|-14-17-14--b--14\-|
B|-10-10-12---|-10-12---|-------|-------12--10-|---h---10-|---h---10-|---h---10-12---------|----------17------|
G|------------|---------|-------|--------------|-10-11----|-10-11----|-10-11---------------|------------------|
D|------------|---------|-------|--------------|----------|----------|---------------------|------------------|
A|------------|---------|-------|--------------|----------|----------|---------------------|------------------|
E|------------|---------|-------|--------------|----------|----------|---------------------|------------------|



ENJOY........

Other versions of Ghost From The Barrow

- Ghost from the barrowTabs

Comment this song and these guitar tabs

Do you have corrections, comments on the guitar tabs, thoughts about the song or a message to the author? Write them below.