Guitar Tabs Explorer
Pacific Dub guitar tabs for Soar

Soar tab


Be the first to rate

Soar tab by Pacific Dub

Guitar tabs

Print
Intro (Delay, clean, wah, and maybe some phaser)
e|----------------------------------------------------------------------|
B|----------------------------------------------------------------------|
G|----------------------------------------------------------------------|
D|--------9-9-9----------------------9-9-9------------------------------| ------|
A|--7---7-------------9-9-9-9--7---7-------------9-9-8-8--------7-7-7-7-|       |
E|---------------7777-----------------------7777----------5---5---------|       |
                                                                                |
------------------------------------------|                                     | x2
------------------------------------------|                                     |
------------------------------------------|                                     |
------------------------------------------|-------------------------------------|
------9-9-9-9--------7-7-7------9-9-9-9---|
-7777----------5---5-------7777-----------|


Second half of intro
Reggae beat with wah
e|---7---7---7---7---5---7---5-----------|
B|---8---7---8---7---5---7---5-----------|
G|---9---7---9---7---5---7---5-----------|
D|---9---9---9---9---7---9---7-----------|  x2
A|---7---9---7---9---7---9---7-----------|
E|---7---7---7---9---5---7---5-----------|


Verse (clean)
Reggae beat with wah
e|---7---7---7---7---5---7---5-----------|
B|---8---7---8---7---5---7---5-----------|
G|---9---7---9---7---5---7---5-----------|
D|---9---9---9---9---7---9---7-----------|  x2
A|---7---9---7---9---7---9---7-----------|
E|---7---7---7---9---5---7---5-----------|
Chorus (distorted)
e|---------------------------------------------------------------------------------------|
B|---------------------------------------------------------------------------------------|
G|---------------------------------------------------------------------------------------|
D|------9-9-----9-9---------------------9-9-----9-9--------------------------------------|
A|--7-7-----7-7---------9-9-----9-9-7-7-----7-7---------9-9-----8-8-----7-7-----7-7------|
E|------------------7-7-----7-7---------------------7-7-----7-7-----5-5-----5-5----------|

Verse (clean)
Reggae beat with wah
e|---7---7---7---7---5---7---5-----------|
B|---8---7---8---7---5---7---5-----------|
G|---9---7---9---7---5---7---5-----------|
D|---9---9---9---9---7---9---7-----------|  x2
A|---7---9---7---9---7---9---7-----------|
E|---7---7---7---9---5---7---5-----------|

Chorus (distorted)
e|---------------------------------------------------------------------------------------|
B|---------------------------------------------------------------------------------------|
G|---------------------------------------------------------------------------------------|
D|------9-9-----9-9---------------------9-9-----9-9--------------------------------------|
A|--7-7-----7-7---------9-9-----9-9-7-7-----7-7---------9-9-----8-8-----7-7-----7-7------|
E|------------------7-7-----7-7---------------------7-7-----7-7-----5-5-----5-5----------|

solo is done over the E chord diagramEE pentatonic scale starting at the 12th fret. I will update
tab when I figure it out.

************************************

| /   slide up
| \   slide down
| h   hammer-on
| p   pull-off
| ~   vibrato
| +   harmonic
| x   Mute note
| b   Bend
| pb  Pre-bend
| br  Bend release
| pbr Pre-bend release
| brb Bend release bend

************************************

Comment this song and these guitar tabs

Do you have corrections, comments on the guitar tabs, thoughts about the song or a message to the author? Write them below.