Search tabs and chords

Search for song, artist or band

Log in

One click and you are in

Login with Facebook Login with Google

Why sign up and log in

Guitar Tabs Explorer
Pacific Dub guitar tabs for Dreaming

Guitar tabs

Tabbed by Chase Keller

Tab date: 7/31/2013
Band: Pacific Dub

First time hearing this song and it is awesome so here are the tabs I have created just
by listening to it over and over. Please rate and let me know what you think! -Chase
This tab doesnt contain the solo or outro, although they are very easy to figure out or
improvise based on the chords.

Standard Tuning EAGDBe
Intro Guitar One

e|-----------------------------------------------------------------------------|
B|--8-----------10-------------------------------------------------------------|
G|--------x4----------x4----------7----x4------9-------x4----------------------| X2
D|----9------------9------------------9-------------9--------------------------|
A|-----------------------------------------------------------------------------|
E|-----------------------------------------------------------------------------|

e|-----------------------------------------------------------------------------|
B|--8-----------10-------------------7-------------8---------------------------|
G|--------x4----------x4----------------x4--------------x4---------------------| X2
D|----9------------9-------------------9--------------9------------------------|
A|-----------------------------------------------------------------------------|
E|-----------------------------------------------------------------------------|

Em.        C.             Gmaj.           A chord diagramBB
e|----------------------------------------------------|
B|--8-----8-----8-----8--------3----3------7-----7----|
G|----9-----9-----9-----9--------4---4------8-----8---| X2 (faint)
D|------9-----9-----10----10-------5---5-----9-----9--|
A|----------------------------------------------------|
E|----------------------------------------------------|

Em.             C.                                 A chord diagramBB
e|--7----7-------8-----8--------7-----7-------7-----7-------------------------|
B|---8----8-------8-----8--------8-----8-------7------7-----------------------|
G|-----9----9--------9-----9-------7-----7------8------8----------------------|X2
D|----------------------------------------------------------------------------|
A|----------------------------------------------------------------------------|
E|----------------------------------------------------------------------------|

Em.                                   A chord diagramC majorC
e|-----------------------------------------------------------------------------|
B|---8-------8-8-7-8-10-8-7-8----8---------8-8-7-8-10-8-7-8--------------------|
G|---9--x9----------------------------9---x9-----------------------------------|
D|---9---------------------------------10--------------------------------------|
A|---7---------------------------------10--------------------------------------|
E|--------------------------------------8--------------------------------------|

Em.                                     A chord diagramD MajorD
e|-----------------------------------------------------------------------------|
B|---8-------8-8-7-8-10-8-7-8------7-------------------------------------------|
G|---9--x9------------------------------7-------x9-----------------------------|
D|---9-----------------------------------7-------------------------------------|
A|---7-----------------------------------5-------------------------------------|
E|-----------------------------------------------------------------------------|

Verse Chords
         Em.       C.             Gmaj.       A chord diagramBB
e|-----7----------8-------------3------------7-----------------------------|
B|----8----------8--------------3------------7-----------------------------|
G|----9----------9-------------4------------8------------------------------|
D|----9----------10-----------5------------9-------------------------------|
A|----7----------10-----------5------------9-------------------------------|
E|----------------8------------3------------7------------------------------|

Chorus Chords

Em.        C.          D.                D.
e|-----7----------8---------------------------2------------------------------|
B|----8----------8-----------7---------------3-------------------------------|
G|----9----------9-----------7--------or ---2--------------------------------|
D|----9----------10----------7--------------0--------------------------------|
A|----7----------10----------5-----------------------------------------------|
E|----------------8----------------------------------------------------------|

After chorus

Em.                                   A chord diagramC majorC
e|-----------------------------------------------------------------------------|
B|---8-------8-8-7-8-10-8-7-8----8---------8-8-7-8-10-8-7-8--------------------|
G|---9--x9----------------------------9---x9-----------------------------------|
D|---9---------------------------------10--------------------------------------|
A|---7---------------------------------10--------------------------------------|
E|--------------------------------------8--------------------------------------|

Em.                                     A chord diagramD MajorD
e|-----------------------------------------------------------------------------|
B|---8-------8-8-7-8-10-8-7-8------7-------------------------------------------|
G|---9--x9------------------------------7-------x9-----------------------------|
D|---9-----------------------------------7-------------------------------------|
A|---7-----------------------------------5-------------------------------------|
E|-----------------------------------------------------------------------------|

Other versions of Dreaming

DreamingChords

Almost there ...

Sign in to get your own page with links to favourite songs and more. You are just one click away...

Login with Facebook Login with Google