Log in

One click and you are in

Login with Facebook Login with Google

Why sign up and log in

Guitar Tabs Explorer
P O D tabs for Youth of the nation

Guitar tabs

Album: Satellite

Drop the Low A chord diagramE MajorE string to C.  It Should Be CADGBe.

~ = Appegio

Intro (uses a delay effect to get the up and down sound)
***************************************************************
e--------------------------------------------------------------
B--------------------------------------------------------------
G--------------------------------------------------------------
D--------------------------------------------------------------
A--------------------------------------------------------------
C--0-----------3-----------------------------------------------
Repeat 4x (use song to get the timing down exact)


Verse Part 1 (uses a delay effect to get the up and down sound)
***************************************************************
e--------------------------------------------------------------
B--------------------------------------------------------------
G--------------------------------------------------------------
D----------5-------------3-------------------------------------
A--------------------------------------------------------------
C--0-----------------3-----------------------------------------
Repeat 4x


Verse Part 2 (uses a delay effect to get the up and down sound)
***************************************************************
e------8-----10---11-11-11----8-------~11----------------------
B---8----------------------8----------~10----------------------
G-------------------------------------~8-----------------------
D--------------------------------------------------------------
A--------------------------------------------------------------
C--------------------------------------------------------------


Chorus (uses a delay effect to get the up and down sound)
***************************************************************
e--------------------------------------------------------------
B--------------------------------------------------------------
G--------------------------------------------------------------
D------------333-----------------------------------------------
A--33333-333-333-----------------------------------------------
C--00000-000---------------------------------------------------


Solo (didnt have time to get this, ill have it soon)


Outro (uses a delay effect to get the up and down sound)
***************************************************************
e--------------------------------------------------------------
B--------------------------------------------------------------
G--------------------------------------------------------------
D----------5-------------3-------------------------------------
A--------------------------------------------------------------
C--0-----------------3-----------------------------------------



This is basically it, the order goes liek this|
					      v

Intro

verse part 1

verse part 2

solo

outro
***************************************************************

Other versions of Youth Of The Nation

Youth of the nationChords

Almost there ...

Sign in to get your own page with links to favourite songs and more. You are just one click away...

Login with Facebook Login with Google