Log in

One click and you are in

Login with Facebook Login with Google

Why sign up and log in

Guitar Tabs Explorer
P O D tabs for Sleeping awake

Guitar tabs

Album: The Matrix Reloaded Soundtrack (2003)
As tabbed by Joe Muggah

Dropped A chord diagramD MajorD tuning

Verse 1
e------------------------------------------------------------
B------------------------------------------------------------
G--7-7-7-7---------7-7-7-7---------8-8-8-8-------------------
D--x-x-x-x---------x-x-x-x---------x-x-x-x-------------------
A--5-5-5-5---------5-5-5-5---------6-6-6-6---------x-x-------
D-----------0-0-0-----------0-0-0-----------0-0-0--x-x-------

(continued)
e------------------------------------------------------------
B------------------------------------------------------------
G--10-10-10-10--8-8-8-8--------------------------------------
D--10-10-10-10--8-8-8-8--------------------------------------
A---8--8--8--8--6-6-6-6--------------------------------------
D------------------------------------------------------------


Fill
e------------------------------------------------------------
B------------------------------------------------------------
G--7-7-7-7---------7-7-7-7---------8-8-8-8-------------------
D--x-x-x-x---------x-x-x-x---------x-x-x-x-------------------
A--5-5-5-5---------5-5-5-5---------6-6-6-6-------------------
D-----------0-0-0-----------0-0-0-----------0-0-0------------


Chorus
e------------------------------------------------------------
B------------------------------------------------------------
G----------------------6----3-3--3m-3m--3-3--3m-3m-----------
D--0--0-0-0--3-3--0-3--6----3-3--3m-3m--3-3--3m-3m-----------
A--0--0-0-0--3-3--0-3--4----1-1--1m-1m--1-1--1m-1m-----------
D--0--0-0-0--3-3--0-3--6-------------------------------------

(continued)
e------------------------------------------------------------
B----------------------------------13------------------------
G----------------------6----6--10---x------------------------
D--0--0-0-0--3-3--0-3--6----x---x--10------------------------
A--0--0-0-0--3-3--0-3--4----4---8----------------------------
D--0--0-0-0--3-3--0-3--6-------------------------------------

Post-Chorus
e------------------------------------------------------------
B------------------------------------------------------------
G--9--9-9-9-9--9-5-9-5--5-5-5-5--8-8-8-8-8-8-8-8-8-8-8-8-----
D--x--x-x-x-x--x-x-x-x--x-x-x-x--x-x-x-x-x-x-x-x-x-x-x-x-----
A--7--7-7-7-7--7-3-7-5--3-3-3-3--6-6-6-6-6-6-6-6-6-6-6-6-----
D------------------------------------------------------------

(continued)
e------------------------------------------------------------
B------------------------------------------------------------
G--5-5-5-5-5-5-5-5-5-5-5-5-----------------------------------
D--x-x-x-x-x-x-x-x-x-x-x-x-----------------------------------
A--3-3-3-3-3-3-3-3-3-3-3-3-----------------------------------
D------------------------------------------------------------


Verse 2
e------------------------------------------------------------
B------------------------------------------------------------
G--7-7-7-7-----------7-7-7-7----------8-8-8-8----------------
D--x-x-x-x-----------x-x-x-x----------x-x-x-x----------------
A--5-5-5-5------x-x--5-5-5-5-----x-x--6-6-6-6---------x-x----
D-----------0-0-x-x----------0-0-x-x-----------0-0-0--x-x----


Bridge A chord diagramA augmentedA (Guitar 1)
e-----|------------------------------------------------------
B-----|------5---5-----------------------------------1-------
G--3~-|--------7-----------0---------------------------3-----
D--3~-|----7-----------0-----0-------6---6-------3-------3---
A--1~-|--5-----------1---1-----1---4---4---4---1---1---------
D-----|------------------------------------------------------


Bridge A chord diagramBB (Guitar 2)
e------------------------------------------------------------
B------------------------------------------------------------
G------------------------------------------------------------
D--10--10-10-10------------10^-------10^---8^---7--7-7-7-----
A----------------8--8-8-8-------11^--------------------------
D------------------------------------------------------------

(continued)
e------------------------------------------------------------
B------------------------------------------------------------
G------------------------------------------------------------
D--10^-------------10^-------10^---8^------------------------
A-------8--8-8-8^-------11^----------------------------------
D------------------------------------------------------------


Riff (Guitar 2)
e------------------------------------------------------------
B------------------------------------------------------------
G--9^--10-9-9^--9--9-9-9-9--9--9-9-9--12^--10^--9^--10-9-9^--
D------------------------------------------------------------
A------------------------------------------------------------
D------------------------------------------------------------

(continued)
e------------------------------------------------------------
B------------------------------------------------------------
G--9--9-9-9-9--9--9-9-9--12-12-12-12-12-12-12-12-12-12-12-12-
D------------------------------------------------------------
A------------------------------------------------------------
D------------------------------------------------------------


Outro                                              end on
e-------------------------------------------------|----------
B-------------------------------------------------|----------
G-------------------------------------------------|----------
D--0m-0m--0m-0m--3--0--3---0m-0m--0m-0m--3--0--3--|--0-------
A--0m-0m--0m-0m--3--0--3---0m-0m--0m-0m--3--0--3--|--0-------
D--0m-0m--0m-0m--3--0--3---0m-0m--0m-0m--3--0--3--|--0-------


Verse 1
Fill

Verse 1

Chorus
Post-Chorus

Verse 1

Verse 2
Fill

Verse 1

Chorus
Post-Chorus

Bridge A chord diagramA augmentedA

Bridge A, A chord diagramBB
Post-Chorus, Riff

Chorus
Post-Chorus

Outro

Almost there ...

Sign in to get your own page with links to favourite songs and more. You are just one click away...

Login with Facebook Login with Google