Log in

One click and you are in

Login with Facebook Login with Google

Why sign up and log in

Guitar Tabs Explorer
P O D tabs for Alive

Guitar tabs with lyrics

Artist : P.O.D
Song : Alive
Album : Satalite

Drop the low A chord diagramE MajorE string tuning to a A chord diagramD MajorD

h= hammer
>= a lot of separated strums
Intro/Verses
************
E-----------------------------------------------------------
B-----------------------------------------------------------
G-----------------------------------------------------------
D---0--0--0--0--0---5-5-5-5-8-8-8-8-8-8-8-8---8-8-8-8-3-3-----
A---0--0--0--0--0---5-5-5-5-8-8-8-8-8-8-8-8---8-8-8-8-3-3-----
D---0--0--0--0--0---5-5-5-5-8-8-8-8-8-8-8-8---8-8-8-8-3-3-----
Repeat 5x


CHORUS
******       listen to song to decide how many strums
per chord.
E--------------------------------------------------
B--------------------------------------------------
G-(10)---------------------------------------------
D---8---0--(---12)---3----3-------------------------
A---8---0--(G2-12)---3----3-------------------------
D---8---0--(---12)---3----3-------------------------

the (10) is added occassionally to this chord.
The part in brackets with G2 is the chord I believe
guitar 2 plays,
	it's the same chord but the first version is best
when playing
	solo.

Middle 8 Part/Bridge

E---------------------------------------
B---------------------------------------
G-------------10--9--7--9--7--5---------
D---0-->--------------------------------
A---0-->--------------------------------
D---0-->--------------------------------
Repeat 2x then go back to first line, after
second time go on

E-----------------12h13--12--12h13--12--12h13--12--12h13--
B---------------------------------------------------------
G--7---10--9--5-------------------------------------------
D---------------------------------------------------------
A---------------------------------------------------------
D---------------------------------------------------------

E-----------	                E---------------------
B-----------  then some effect	B---------------------
G-7-10-9-5--  on 12 &13 on the	G-----10-9-7-9-7-5----
D-----------  high A chord diagramE MajorE		D-0->-----------------
A-----------			A-0->-----------------
D-----------			E-0->-----------------

E---12-12h13-12-12h13-12-12h13-\\\  one guitar plays the
B------------------------------///  part uon the lines up
G------------------------------\\\  here while
D---0-->----------------------- \\\ the other plays these
A---0-->----------------------- /// lines
D---0-->-----------------------///
Repeat 2x


E---------------------------------------
B---------------------------------------
G---------------------------------------
D---0--0--0--0--0-----0--0--0--0--0-----
A---0--0--0--0--0-----0--0--0--0--0-----
D---0--0--0--0--0-----0--0--0--0--0-----
Play this line 4 times, make the last

note of the line short.

**************************************************
That's it basically, there is quite a lot of effects
used in the song so
some of the chords may not sound exact, but they're
correct.
I honestly think the tuning should be lower, perhaps
(CGCFAD) for the
opening chords in the Intro/Verse but it's not really
worth re-tuning
when Dropped-D is fine.
**************************************************

P. O. D. - Alive

Tuned down one step and dropped-c


Intro and Verses: (x2 intro, x4 verse)

d|---------------------------
a|---------------------------
f|-------2222-55555-5555-----
c|-22202-xxxx-55555-5555-555-
g|-22202-0000-33333-3333-555-
c|-22202-----------------555-


Chorus: (x2)

d|---------------------------------------------------------------------
a|---------------------------------------------------------------------
f|-5555555555555555----------------------------------------------------
c|-5555555555555555-222222222222222-5555555555550-55555555-5/4/2/4/2/0-
g|-3333333333333333-222222222222222-5555555555550-55555555-------------
c|------------------222222222222222-5555555555550-55555555-------------


Bridge: (w/ reverb)

d|------------------|-14h15p14-                |-14h15-14h15-
a|------------------|---------- repeat measure |-------------
f|------0****-------|---------- x7 then turn   |-------------
c|-2~~~~--4~~-------|---------- reverb off for |-------------
g|-----------5~~~~--|----------     this ->    |-------------
c|------------------|----------                |-------------

  (w/ reverb again)

d|----------------------
a|----------------------
f|------0****-----------  alternate this in there
c|-2~~~~--4~~------5~~~~  w/ the above riff
g|-----------5~~~~------  repeat bridge as necessary
c|----------------------


Outro: (x4)

e|-----------------
b|-----------------
g|-----------------
d|--22202--220202--
a|--22202--220202--
d|--22202--220202--

Almost there ...

Sign in to get your own page with links to favourite songs and more. You are just one click away...

Login with Facebook Login with Google