Log in

One click and you are in

Login with Facebook Login with Google

Why sign up and log in

Guitar Tabs Explorer
P Model tabs for Ohayo

Guitar tabs

Oyaho
P-Model
'Landsale' LP
Transcribed by Luke Borley
Entire song repeats 4-bar A chord diagramA augmentedA / A chord diagramE MajorE pattern - two bars of each
Electric guitar simply strums clean open chords
All parts repeat constantly throughout including during vocals

[lead keys part arranged for guitar]

A chord diagramA augmentedA
--12-11-10-9-----------------|
--------------12s14-10-------|
------------------------9----| x2
-----------------------------|
-----------------------------|
-----------------------------|

A chord diagramE MajorE
-----------------------|---------------------|
-----------8-9-10-11---|---------------------|
-8-9-10-11-------------|---------------------|
-----------------------|-----------5-6-7-8---|
-----------------------|--6-7-8-9------------|
-----------------------|---------------------|


[synth strings part arranged for guitar]
[w/ bowed effect]
A chord diagramA augmentedA
--------------------------------|
--------------------------------|
--s14---s12---------------------|
-------------s12---s14(vibrato)-| x2
--------------------------------|
--------------------------------|

A chord diagramE MajorE
---------|----------|
---------|----------|
---------|----------|
---------|-12--s14--|
---------|----------|
-10-s12--|----------|

Almost there ...

Sign in to get your own page with links to favourite songs and more. You are just one click away...

Login with Facebook Login with Google