Log in

One click and you are in

Login with Facebook Login with Google

Why sign up and log in

Guitar Tabs Explorer
P Model tabs for Blue cross

Guitar tabs

Blue Cross
P-Model
'Potpourri' LP
Transcribed by Luke Borley
riff
---------------------------------------------------------|
---------------------------------------------------------|
---------------------------------------------------------|
--------3---s6-6-6-3-------------------------------------|
-----5----------------5-5-5----0--0-0-0-0-0--0-0-0-0-0--0|
--5--------------------------4-5--5-5-5-5-5--5-5-5-5-5--4|


verse
-----9--|
--11-11-| repeat
--10----|
--------|
--------|
--------|


solo

--------------------------------------------------6----9-8-6---------7----xxx| [slide and whammy noise after]
---------------------------whammy----------------------------9-8s6----6-- xxx|
------3--s6>3---------3--6(^^^)7(^^)-------3--6h7----------------------7--xxx
----5---------------5--------------------5----------8---------------------xxx|
--5---------------5-------------------5--------------------------------------|
-----------------------------------------------------------------------------|


ending after riff
---------------|
---------------|
---------------|
---------------|
----------5----|
---5-4-3-------|

Almost there ...

Sign in to get your own page with links to favourite songs and more. You are just one click away...

Login with Facebook Login with Google