Log in

One click and you are in

Login with Facebook Login with Google

Why sign up and log in

Guitar Tabs Explorer
P Diddy tabs for I need a girl part 2

Guitar tabs

--7h9h7------10-9-7-9-10-9-----9-----------9---7h9h7----10-9-7-9-10-9-----|
--7----------7-----------------10----10-12-----7--------7-----------------|
--7----------7-----------------11--------------7--------7-----------------|
--9----------9-----------------9---------------9--------9-----------------|
--------------------------------------------------------------------------|
--------------------------------------------------------------------------|


---9-----------9-----7----------------------9--------------------| go immediately back to the beginning!
---10----10-12-------8h10h8--10--8--7--8----10h12h10--12-10-9-10-|
---11----------------9----------------------11-------------------|
---9-----------------7----------------------9--------------------|
-----------------------------------------------------------------|
-----------------------------------------------------------------|

Other versions of I Need A Girl Part 2

I need a girl part 2 feat mario winansTabs

Almost there ...

Sign in to get your own page with links to favourite songs and more. You are just one click away...

Login with Facebook Login with Google