Log in

One click and you are in

Login with Facebook Login with Google

Why sign up and log in

Guitar Tabs Explorer
P Diddy tabs for Bad boy for life

Guitar tabs

Album: Bad Boy For Life
Tabbed by jlsixtyten@hotmail.com


This is a really easy song based around the pentatonic scale.

Short Intro
e-|-----------------------------|
b-|-----------------------------|
g-|-----------------------------|
d-|--------------------------3--|
a-|--------5--3--------5--3-----|
e-|--3--6--------6--3-----------|
Main Riff
e-|--------------------------------------------------------------------|
b-|--------------------------------------------------------------------|
g-|-----------3--------------------------------------------------------|
d-|--------3-----5--3--5--3--------------------------------------------|
a-|--------------------------5--5--3--5--5--5--3-----------5--3--------|
e-|--3--3-----------------------------------------6--3--3--------6--3--|

Play the intro at the start once and then just play the main riff through
the entire song.  There are a couple spots
where they play the intro again, just listen to the song and figure out
where.


listen to it to have the beat. The intro is already tabbed good so I will
make the rest. Enjoy!

I make this song only on the 5th cord(A chord diagramA augmentedA).

A chord diagramA augmentedA |-0-0-12-9-7-9-9--7-5-7-7--7-5-3-0-0-7-5-3-0-3-0-|

Almost there ...

Sign in to get your own page with links to favourite songs and more. You are just one click away...

Login with Facebook Login with Google