Log in

One click and you are in

Login with Facebook Login with Google

Why sign up and log in

Guitar Tabs Explorer
Ozma tabs for No one needs to know

Guitar tabs

Tabbed By: Michelle G. CyberPunk5k
Band:      OZMA
Album:     Double Donkey Disc (DDD)


[R|---------|A chord diagramC majorC]
[H|---------|H]
[Y|-4-------|O]
[T|-4--4--2-|R]
[H|-2--4--2-|A chord diagramD MajorD]
[M|----2--0-|S]

[A chord diagramBB|---------------------------------------|A chord diagramBB]
[A chord diagramA augmentedA|*-------------------------------------*|A chord diagramA augmentedA]
[S|*---5-5---5-5-----5---5-5---5---5---5-*|S]
[S|--3-----5-----6-2---3-----5---6---2----|S]

[A chord diagramBB|-------------------|A chord diagramBB]
[A chord diagramA augmentedA|*-----------------*|A chord diagramA augmentedA]
[S|*-----------------*|S]
[S|--3-5-6-2-3-5-6-2--|S]

[*|-------------------------------------------------------------------------\
[S|-11----10-11-10-------11----10-11-10-11-13-11-10-11-10----11----10-11-10-/
[O|----12----------12-------12----------------------------12----12----------\
[L|-------------------12----------------------------------------------------/
[O|-------------------------------------------------------------------------\
[*|-------------------------------------------------------------------------/

\------------------------------------------11-13-18-15-17-18-17-15----18-15-\
/-------11----10-11-10-11-13-11-13-15-13-15------------------------15-------/
\-12-------12---------------------------------------------------------------\
/----12---------------------------------------------------------------------/
\---------------------------------------------------------------------------\
/---------------------------------------------------------------------------/

\-17-18-17-18-20-18-17-18-17-15----------------------------------11---------\
/-------------------------------12-13-12-13-12-13-12-13-12-13-15----13-14---/
\---------------------------------------------------------------------------\
/---------------------------------------------------------------------------/
\---------------------------------------------------------------------------\
/---------------------------------------------------------------------------/

\-------11-----------|A chord diagramG+G]
/-13-15----13-11-----|U]
\----------------12--|I]
/--------------------|T]
\--------------------|A chord diagramA augmentedA]
/--------------------|R]

Almost there ...

Sign in to get your own page with links to favourite songs and more. You are just one click away...

Login with Facebook Login with Google