Log in

One click and you are in

Login with Facebook Login with Google

Why sign up and log in

Guitar Tabs Explorer
Ozma tabs for Lorraine

Guitar tabs

Tabbed By: Michelle G. CyberPunk5k
Band:      OZMA
Album:     Double Donkey Disc (DDD)


Intro/Keys:
(Tabbed for the guitar)
||-12-10-12-10-9-7----------9-7----------9-7-------------||
||-----------------10-9-7-------10-9-7-------10-9-7-9-10-||
||------------------------9------------9-----------------||
||-------------------------------------------------------||
||-------------------------------------------------------||
||-------------------------------------------------------||

Intro/Rhythm	      Verse:	      (Right before the

solo.)
|A chord diagramC majorC|---------------|A chord diagramC majorC|   |A chord diagramC majorC|---------|A chord diagramC majorC|  |A chord diagramC majorC|---------|A chord diagramC majorC|
|H|---------------|H|   |H|---------|H|  |H|---------|H|
|O|-2---2-----4---|O|   |O|---6-7---|O|  |O|-6---4---|O|
|R|-2-2-2-2-4-4-7-|R|   |R|-7-6-7-9-|R|  |R|-6-4-4-2-|R|
|A chord diagramD MajorD|-0-2-0-2-4-2-7-|A chord diagramD MajorD|   |A chord diagramD MajorD|-7-4-5-9-|A chord diagramD MajorD|  |A chord diagramD MajorD|-4-4-2-2-|A chord diagramD MajorD|
|S|---0---0-2---5-|S|   |S|-5-----7-|S|  |S|---2---0-|S|


||---------2---------------------0-2-4-5-12-12-12-12-12-12-12-12-12-12-14-\
||-----2-5---0-----2-5-3-2-0-2-3------------------------------------------/
||-2-4---------2-4--------------------------------------------------------\
||------------------------------------------------------------------------/
||------------------------------------------------------------------------\
||------------------------------------------------------------------------/
  solo


\-------------12-----------------9-7----14-12-------||
/-12-10-12-14----14-12-10-7-9-10-----10-------12----||
\------------------------------------------------12-||
/---------------------------------------------------||
\---------------------------------------------------||
/---------------------------------------------------||

Rhythm:
(For the solo)
|A chord diagramC majorC|---------------|A chord diagramC majorC|
|H|---------------|H|
|O|---7-------7---|O|
|R|-7-7-4-2-7-7-4-|R|
|A chord diagramD MajorD|-7-5-4-2-7-5-4-|A chord diagramD MajorD|
|S|-5---2-0-5---2-|S|

Almost there ...

Sign in to get your own page with links to favourite songs and more. You are just one click away...

Login with Facebook Login with Google